Cifra Club

Asas

Maskavo

Cifrado: Principal (guitarra y guitarra eléctrica)
Selo Cifra Club: esta cifra foi revisada para atender aos critérios oficiais da nossa Equipe de Qualidade.
tono: A
[Intro] E  B  E  B

E           B
  Allalauee
E            B
  Allalaueeee
E                 B
  Cê parece um anjo
E                      B
  Só que não tem asa, iaiá
E                              B
  Oh, meu Deus, quando asas tiver
E              B
  Passe lá em casa

   E    B
E ao sair
     C#m                  G#m
Pras estrelas eu vou te levar
     A                    B
Com a ajuda da brisa do mar
               E   B
Te mostrar onde ir
     E      B
E ao chegar
    C#m                  G#m
Apresento-lhe a lua e o sol
     A                      B
E no céu vai ter mais um farol
                       E  B  E  B
Que é a luz do teu olhar

[Solo]

E|---7-7-7-----4------------7-7-7-----4------------|
B|---------5-7---7----------------5-7---7-5-5-5-5--|
G|-----------------4-4-4-4-------------------------|
D|-------------------------------------------------|
A|-------------------------------------------------|
E|-------------------------------------------------|

  E              B
  Eu não sou moleque
  E                        B
  Ainda não tenho casa, iaiá
  E                          B
  Oh, meu Deus, se um dia tiver
  E              B
  Visto minhas asas

  E    B
E ao sair
     C#m                  G#m
Pras estrelas eu vou te levar
     A                    B
Com a ajuda da brisa do mar
               E   B
Te mostrar onde ir
     E      B
E ao chegar
    C#m                  G#m
Apresento-lhe a lua e o sol
     A                      B
E no céu vai ter mais um farol
                       E  B  E  B
Que é a luz do teu olhar

E|---7-7-7-----4------------7-7-7-----4------------|
B|---------5-7---7----------------5-7---7-5-5-5-5--|
G|-----------------4-4-4-4-------------------------|
D|-------------------------------------------------|
A|-------------------------------------------------|
E|-------------------------------------------------|

  E                 B
  Cê parece um anjo
  E                      B
  Sö que não tem asa, iaiá
  E                              B
  Oh, meu Deus, quando asas tiver
  E              B
  Passe lá em casa
  E    B
E ao sair
     C#m                  G#m
Pras estrelas eu vou te levar
     A                    B
Com a ajuda da brisa do mar
               E   B
Te mostrar onde ir
     E      B
E ao chegar
    C#m                  G#m
Apresento-lhe a lua e o sol
     A                      B
E no céu vai ter mais um farol
                       E  B  E  B
Que é a luz do teu olhar

E           B
  Allalauee
Otros videos de esta canción
    2.496 exhibiciones
      • ½ Tono
      • A
      • Bb
      • B
      • C
      • Db
      • D
      • Eb
      • E
      • F
      • F#
      • G
      • Ab
    • Agregar a la lista

    Afinação da cifra

    Afinador online

      Ops (: Contenido disponible solo en portugués.
      OK