Cifra Club

Metal Massacre Attack

Massacration

Tab de bajo: Principal
B ||------|------|-------------------|------|-------------------|
F#||------|------|-------------------|------|-------------------|
C#||------|------|-------------------|------|-------------------|
G#||------|------|--2----------------|------|--2----------------|


                                                                               
-------------------|-------------------|------------------|-------------------|
-------------------|-------------------|------------------|-------------------|
-------------------|-------------------|------------------|-------------------|
----------------2--|--2----------------|------------------|--2----------------|


                                                                            
---------------------|--------------------------|--------------------------|
---------------------|--4--4--4--4--4--4--4--4--|--4--4--4--4--4--4--4--4--|
---------------------|--------------------------|--------------------------|
--2------2------2----|--------------------------|--------------------------|


                                                      
--------------------------|--------------------------|
--4--4--4--4--4--4--4--4--|--4--4--4--4--4--4--4--4--|
--------------------------|--------------------------|
--------------------------|--------------------------|


                                                      
--------------------------|--------------------------|
--4--4--4--4--4--4--4--4--|--4--4--4--4--4--4--4--4--|
--------------------------|--------------------------|
--------------------------|--------------------------|


                                                                                
--------------------------|--------------------3/---|--------------------------|
--4--4--4--4--4--4--4--4--|--4--4--4--4--4--4-------|--4--4--4--4--4--4--4--4--|
--------------------------|-------------------------|--------------------------|
--------------------------|-------------------------|--------------------------|


                                                      
--------------------------|--------------------------|
--4--4--4--4--4--4--4--4--|--4--4--4--4--4--4--4--4--|
--------------------------|--------------------------|
--------------------------|--------------------------|


                                                      
--------------------------|--------------------------|
--4--4--4--4--4--4--4--4--|--4--4--4--4--4--4--4--4--|
--------------------------|--------------------------|
--------------------------|--------------------------|


                                                                                
--------------------------|--------------------------|-------------------------|
--4--4--4--4--4--4--4--4--|--4--4--4--4--4--4--4--4--|--4--4--4--4--4--4---3---|
--------------------------|--------------------------|-------------------------|
--------------------------|--------------------------|-------------------------|


                                                      
--------------------------|--------------------------|
--2--2--2--2--2--2--2--2--|--2--2--2--2--2--2--2--2--|
--------------------------|--------------------------|
--------------------------|--------------------------|


                                                                                
--------------------------|-------------------------|--------------------------|
--4--4--4--4--4--4--4--4--|--4--4--4--4--4--4---3---|--2--2--2--2--2--2--2--2--|
--------------------------|-------------------------|--------------------------|
--------------------------|-------------------------|--------------------------|


                                                                             
----------------------|--------------------------|--------------------------|
--2---2---2---2-------|--4--4--4--4--4--4--4--4--|--4--4--4--4--4--4--4--4--|
----------------------|--------------------------|--------------------------|
----------------------|--------------------------|--------------------------|


                                                      
--------------------------|--------------------------|
--4--4--4--4--4--4--4--4--|--4--4--4--4--4--4--4--4--|
--------------------------|--------------------------|
--------------------------|--------------------------|


                                                      
--2--2--2--2--2--2--2--2--|--4--4--4--4--4--4--4--4--|
--------------------------|--------------------------|
--------------------------|--------------------------|
--------------------------|--------------------------|


                                                      
--------------------------|--------------------------|
--4--4--4--4--4--4--4--4--|--4--4--4--4--4--4--4--4--|
--------------------------|--------------------------|
--------------------------|--------------------------|


                                                                             
--2--2--2--2--2--2--2--2--|--4---4---4---4-------|--------------------------|
--------------------------|----------------------|--4--4--4--4--4--4--4--4--|
--------------------------|----------------------|--------------------------|
--------------------------|----------------------|--------------------------|


                                                                             
--------------------------|--------------------------|----------------------|
--4--4--4--4--4--4--4--4--|--4--4--4--4--4--4--4--4--|--4---4---4---4-------|
--------------------------|--------------------------|----------------------|
--------------------------|--------------------------|----------------------|


                                                      
--------------------------|--------------------------|
--4--4--4--4--4--4--4--4--|--4--4--4--4--4--4--4--4--|
--------------------------|--------------------------|
--------------------------|--------------------------|


                                                      
--------------------------|--------------------------|
--4--4--4--4--4--4--4--4--|--4--4--4--4--4--4--4--4--|
--------------------------|--------------------------|
--------------------------|--------------------------|


                                                      
--------------------------|--------------------------|
--4--4--4--4--4--4--4--4--|--4--4--4--4--4--4--4--4--|
--------------------------|--------------------------|
--------------------------|--------------------------|


                                                      
--------------------------|--------------------------|
--4--4--4--4--4--4--4--4--|--4--4--4--4--4--4--4--4--|
--------------------------|--------------------------|
--------------------------|--------------------------|


                                                      
--------------------------|--------------------------|
--2--2--2--2--2--2--2--2--|--2--2--2--2--2--2--2--2--|
--------------------------|--------------------------|
--------------------------|--------------------------|


                                                                                
--------------------------|-------------------------|--------------------------|
--4--4--4--4--4--4--4--4--|--4--4--4--4--4--4---3---|--2--2--2--2--2--2--2--2--|
--------------------------|-------------------------|--------------------------|
--------------------------|-------------------------|--------------------------|


                                                                             
----------------------|--------------------------|--------------------------|
--2---2---2---2-------|--4--4--4--4--4--4--4--4--|--4--4--4--4--4--4--4--4--|
----------------------|--------------------------|--------------------------|
----------------------|--------------------------|--------------------------|


                                                      
--------------------------|--------------------------|
--4--4--4--4--4--4--4--4--|--4--4--4--4--4--4--4--4--|
--------------------------|--------------------------|
--------------------------|--------------------------|


                                                      
--2--2--2--2--2--2--2--2--|--4--4--4--4--4--4--4--4--|
--------------------------|--------------------------|
--------------------------|--------------------------|
--------------------------|--------------------------|


                                                      
--------------------------|--------------------------|
--4--4--4--4--4--4--4--4--|--4--4--4--4--4--4--4--4--|
--------------------------|--------------------------|
--------------------------|--------------------------|


                                                                             
--2--2--2--2--2--2--2--2--|--4---4---4---4-------|--------------------------|
--------------------------|----------------------|--4--4--4--4--4--4--4--4--|
--------------------------|----------------------|--------------------------|
--------------------------|----------------------|--------------------------|


                                                                              
--------------------------|--------------------------|----------------------||
--4--4--4--4--4--4--4--4--|--4--4--4--4--4--4--4--4--|--4---4---4---4-------||
--------------------------|--------------------------|----------------------||
--------------------------|--------------------------|----------------------||




_______________________________________________________
Contribuição: Daniel Fernandes(daniel_orochi@hotmail.com)
Composición de Massacration
10 vistas

0 comentarios

Ver todos los comentarios

¿Lograste tocar?

0 Tocaron 0 Aún no

¡Graba un video tocando Metal Massacre Attack y envíanoslo!

00:00 / 00:00
Otros videos de esta canción
Repetir Calidad Automático
Otros videos de esta canción
00:00 / 00:00
Automático
OK