Cifra Club

Explode Coração

Mastruz Com Leite

Cifrado: Principal (guitarra y guitarra eléctrica)
Selo Cifra Club: esta cifra foi revisada para atender aos critérios oficiais da nossa Equipe de Qualidade.
tono: Em
[Tab - Intro]

E|------19-19-17-17----------|
B|------------------20-17----|
G|---------------------------| (2x)
D|---------------------------|
A|---------------------------|
E|---------------------------|

E|-----17-17-15-15-14--------|
B|--------------------15-----|
G|---------------------------| (2x)
D|---------------------------|
A|---------------------------|
E|---------------------------|

E|------19-19-17-17----------|
B|------------------20-17----|
G|---------------------------| (2x)
D|---------------------------|
A|---------------------------|
E|---------------------------|

E|----17-17-15-15-14---------|
B|-------------------15------|
G|---------------------------|
D|---------------------------|
A|---------------------------|
E|---------------------------|

E|--17-17-15-15-14-----------|
B|-----------------15-15/17--|
G|---------------------------|
D|---------------------------|
A|---------------------------|
E|---------------------------|

Em              D
Explode coração
                 Em             D
Nessa noite de fogueira de balão
              Em             D
Feita para enfeitar nossa união
                    B7
Para sempre eu e você
Em           D
Nesse São João
                        Em       D
Quero queimar na fogueira da paixão
              Em           D
De amor incendiar meu coração
              B7
Até ele derreter
             Em                   D
Quero um sanfoneiro lá dos cafundós
             Em                  D
Vem de pé-de-serra pra tocar forró
              Em                D
Sentir o teu cheiro, cheiro sedutor
             Em               D         B7
Provar o teu beijo, beijo matador, uohohoh
Em
Foi Santo Antônio quem falou
                      D
E São Pedro confirmou, confirmou, confirmou, ohohoh
Em                                    B7      
Que nessa noite tão linda serias meu amor, amor
Otros videos de esta canción
    130 exhibiciones
      • ½ Tono
      • Am
      • Bbm
      • Bm
      • Cm
      • C#m
      • Dm
      • Ebm
      • Em
      • Fm
      • F#m
      • Gm
      • G#m
    • Agregar a la lista

    Afinação da cifra

    Afinador online

      Ops (: Contenido disponible solo en portugués.
      OK