Cifra Club

Meio-dia

Mastruz Com Leite

Cifrado: Principal (guitarra y guitarra eléctrica)
Selo Cifra Club: esta cifra foi revisada para atender aos critérios oficiais da nossa Equipe de Qualidade.
tono: A
Introdução A E F#m D C#m Bm A E


E|-----------------|--------------------|
B|-----------------|--------------------|
G|--/6-6-6-6-6-7-6-|-------------6------|
D|-----------------|--/9-9-9-9-9---9-7--|
A|-----------------|--------------------|
E|-----------------|--------------------|

E|-----------------|-------------------|
B|-----------------|--6/7-10-9---------|
G|-----------------|-----------9-11-9--|
D|--7-7-7-7-9-7-7--|-------------------|
A|-----------------|-------------------|
E|-----------------|-------------------|

E|---------------------------|
B|---------------------------|
G|--6------------------------|
D|----9-7-6h7p6-------6-9-7--|
A|--------------9-7-9--------|
E|---------------------------|


A                       E
Escorro o suor do meio dia
                  F#m
Assobiando a melodia
              D                   A
Eu tento saciar com um gole da cabaça
                       E                   D F#m C#m Bm A E
Passa a sede mas não passa o jejum, jejum há

E|-------------------|---------------------------|
B|--6/7-10-9---------|---------------------------|
G|-----------9-11-9--|--6------------------------|
D|-------------------|----9-7-6h7p6-------6-9-7--|
A|-------------------|--------------9-7-9--------|
E|-------------------|---------------------------|

A                       E
O sol esquenta minha cabeça
                      F#m
"Vixe” Maria não esqueça
                 D
Também de esquentar
                       A
Com seus beijos minha vida
                 E                      D F#m C#m Bm A E
E o sobejo da comida que sobrou do jantar

E|-------------------|---------------------|
B|--6/7-10-9---------|---------------------|
G|-----------9-11-9--|--6---------6h7h9-9--|
D|-------------------|----9-7-7h9----------|
A|-------------------|---------------------|
E|-------------------|---------------------|

A                    E
João, acabou-se a farinha
                  D
O querosene da cozinha
                        A  E D E
No feijão "gurgui” já deu

E|---------------------|
B|---------------------|
G|---------------------|
D|--6h7p6-------6-9-7--|
A|--------9-7-9--------|
E|---------------------|

A                         E
Pai traz o vestido de chita
                      D
Que eu quero ficar bonita
                     A
Bonita que nem um mateu

E|---------------------|
B|---------------------|
G|---------------------|
D|--6h7p6-------6-9-7--|
A|--------9-7-9--------|
E|---------------------|

A                       E
Tenha paciência minha gente
                   D
Foi a seca e a enchente
                   A  E D E
O culpado não sou eu.

E|---------------------|
B|---------------------|
G|---------------------|
D|--6h7p6-------6-9-7--|
A|--------9-7-9--------|
E|---------------------|


A                       E
Tenha paciência minha gente
                   D
Foi a seca e a enchente
                   A  E D E
O culpado não sou eu.

E|-----------------|--------------------|
B|-----------------|--------------------|
G|--/6-6-6-6-6-7-6-|-------------6------|
D|-----------------|--/9-9-9-9-9---9-7--|
A|-----------------|--------------------|
E|-----------------|--------------------|

E|-----------------|-------------------|
B|-----------------|--6/7-10-9---------|
G|-----------------|-----------9-11-9--|
D|--7-7-7-7-9-7-7--|-------------------|
A|-----------------|-------------------|
E|-----------------|-------------------|

E|---------------------------|
B|---------------------------|
G|--6------------------------|
D|----9-7-6h7p6-------6-9-7--|
A|--------------9-7-9--------|
E|---------------------------|
Otros videos de esta canción
    831 exhibiciones
      • ½ Tono
      • A
      • Bb
      • B
      • C
      • Db
      • D
      • Eb
      • E
      • F
      • F#
      • G
      • Ab
    • Agregar a la lista

    Afinação da cifra

    Afinador online

      Ops (: Contenido disponible solo en portugués.
      OK