Cifra Club

C.C.M.

Mata-Ratos

Cifrado: Principal (guitarra y guitarra eléctrica)
tono: E
INTRO:
-----

 E|---------------------------|
 B|---------------------------|
 G|---------------------------|
 D|----7-----7-----7-9-7-6-7--|
 A|--7-5---7-5---7-5-7-5-4-5--|
 E|--5-----5-----5------------|

VERSOS:
------

           
  C# / D     C# / D     G     A
  C# / D     C# / D     E*    A


CHORUS:
------

  B   E*  G*  D        |
  B   E*  G*  A*       |  [2X]



           
  C# / D     C# / D     G     A
  C# / D     C# / D     E*    A
 

Final
  D...

 E|---------------------------------------------------------------------|
 B|---------------------------------------------------------------------|
 G|-------------------------------------------------------------4-6--7--|
 D|--0--0-4--4-5--5-6--6-7--4-5p4--------0--0-4--4-5--5-6--6-7----------|
 A|-------------------------------5---0---------------------------------|
 E|---------------------------------------------------------------------|

  D...


Acordes*
E|---|----|-----|
B|-5-|-8--|-10--|          
G|-4-|-7--|--9--|
D|-2-|-5--|--7--|
A|---|----|-----|
   E*  G*    A*
00:00 / 00:00
Otros videos de esta canción
Repetir
Otros videos de esta canción
Composición de Miguel Newton, P. Coelho
Colaboración y revisión:
  • leonardo bythors
31 vistas
    • ½ Tono
    • A
    • Bb
    • B
    • C
    • Db
    • D
    • Eb
    • E
    • F
    • F#
    • G
    • Ab
  • Agregar a la lista

    0 comentarios

    Ver todos los comentarios

    ¿Lograste tocar?

    0 Tocaron 0 Aún no

    ¡Graba un video tocando C.C.M. y envíanoslo!

    00:00 / 00:00
    OK