Cifra Club

Inocente, o Doente

Mata-Ratos

Cifrado: Principal (guitarra y guitarra eléctrica)
tono: C
Baixo intro
g|-----------------------------------|
d|-----------------------------------|
a|-5555-8-7--------5555-8-7----------|
E|----------888-55----------888-55..-|

Guitarra

"...o que estava a fazer..."
  Dm   C   Am
e|-1---0---0-------------------------|
b|-3---1---1-------------------------|
g|-2---0---2-------------------------|
d|-0---2---2-------------------------|
a|-----3---0-------------------------|
E|-----------------------------------|

"..agora, quero morrer.."
   D     F   E     D     F   E
e|-----------------------------------|
b|-----------------------------------|
g|-------555544444-------555544444---|
d|-77777-333322222-77777-333322222---|
a|-55555-----------55555-------------|
E|-----------------------------------|

"Oooo Ooo, Inocente, o doente!!"
  C  E B  C E B
e|-----------------------------------|
b|-----------------------------------|
g|---4------4------------------------|
d|-5-2-4..5-2-4----------------------|
a|-3---2..3---2----------------------|
E|-----------------------------------|
00:00 / 00:00
Otros videos de esta canción
Repetir
Otros videos de esta canción
Composición de Mata Ratos
Colaboración y revisión:
  • leonardo bythors
15 vistas
    • ½ Tono
    • A
    • Bb
    • B
    • C
    • Db
    • D
    • Eb
    • E
    • F
    • F#
    • G
    • Ab
  • Agregar a la lista

    0 comentarios

    Ver todos los comentarios

    ¿Lograste tocar?

    0 Tocaron 0 Aún no

    ¡Graba un video tocando Inocente, o Doente y envíanoslo!

    00:00 / 00:00
    OK