Cifra Club

Sai da Minha Vida

Mata-Ratos

Cifrado: Principal (guitarra y guitarra eléctrica)
tono: G
Riff 1

"Eu não gosto da maneira como olhas para mim..."

(várias vezes cada nota, ouça a música)
e|-------------------------------|
b|-------------------------------|
g|-------------------------------|
d|-----5-2-----4------5-2-----4--|
a|-2-5-3-0-2-5-2--2-5-3-0-2-5-2--|
E|-0-3-----0-3----0-3-----0-3----|


Riff2


"Sai da minha vida, deixe-me viver.."

e|-------------------------------|
b|-------------------------------|
g|-------------------------------|
d|---5-2-4---5-2-4---------------|
a|-2-3-0-2-2-3-0-2---------------|
E|-0-------0---------------------|
00:00 / 00:00
Otros videos de esta canción
Repetir
Otros videos de esta canción
Composición de Mata Ratos
Colaboración y revisión:
  • leonardo bythors
17 vistas
    • ½ Tono
    • A
    • Bb
    • B
    • C
    • Db
    • D
    • Eb
    • E
    • F
    • F#
    • G
    • Ab
  • Agregar a la lista

    0 comentarios

    Ver todos los comentarios

    ¿Lograste tocar?

    0 Tocaron 0 Aún no

    ¡Graba un video tocando Sai da Minha Vida y envíanoslo!

    00:00 / 00:00
    OK