Cifra Club

Fica (part. Ana Vitória)

Matheus e Kauan

Cifrado: Principal (guitarra y guitarra eléctrica)
Já pensou em usar uma coleção de roupas do Cifra Club? Responda as perguntas abaixo e nos ajude nessa missão! →
tono: Bb (con acordes en la forma de G) Capotraste en 3ª casa
[Intro]

   C9           D4
E|------------------------------------------|
B|---3p0---3p0------------------------------|
G|-0--------------0h2--2h4p2p0--------------|
D|-0-----0--------0------------0------------|
A|-3------------5---------------------------|
E|------------------------------------------|

[Primeira Parte]

 C9
Mapeei a dedo tuas sardas
 D4
Contornei sem jeito tuas linhas
 Em7
Que te entregam e desvendam 
      Bm
O melhor em ti

 C9
Me perdi no céu das suas pintas
 D4
Me encontrei no céu da tua boca
 Em7
Tu é labirinto, rua sem saída
 A7
Me rendi a tua alma nua, vem cá

[Primeira Parte]

Parte 1

   C9             D4
E|-----x------x-------x--------x------------|
B|---3-x-3--3-x---3-3-x-3----3-x------------|
G|---0-x-0--0-x---0-0-x-0----0-x------------|
D|---0-x-0--0-x---0-0-x-0----0-x------------|
A|-3---x-3----x---5---x-5--5---x------------|
E|-----x------x-------x--------x------------|

Parte 2

   Em7             Bm
E|-----x--------x----2-x----2-x-------------|
B|-3-3-x-3----3-x----3-x----3-x-------------|
G|-0-0-x-0----0-x--4-4-x-4--4-x-------------|
D|-0-0-x-0----0-x--4---x-4----x-------------|
A|-----x--------x--2---x-2----x-------------|
E|-0---x-0--0---x------x------x-------------|

Parte 3

   C9*            D4
E|-----x------x-------x--------x------------|
B|-1-1-x-1--1-x---3-3-x-3----3-x------------|
G|-0-0-x-0--0-x---0-0-x-0----0-x------------|
D|-0-0-x-0--0-x---0-0-x-0----0-x------------|
A|-3---x-3----x---5---x-5--5---x------------|
E|-----x------x-------x--------x------------|

Parte 4

   Em              A7
E|---0-x------0-x----2-x----2-x-------------|
B|-3-3-x-3----3-x----3-x----3-x-------------|
G|-0-0-x-0----0-x--4-4-x-4--4-x-------------|
D|-0---x-0------x--4---x-4----x-------------|
A|-----x--------x--2---x-2----x-------------|
E|-0---x-0--0---x------x------x-------------|

[Pré-refrão]

C9                  G
   Congela o teu olhar no meu
                D4/F#
Esconde que já percebeu
               Em         D9(11)
Que todo meu amor é teu amor

           C9
Então vem cá
                  G
Que nós, até Caio escreveu
                D4
Parece que nos conheceu

Em mel e girassóis te peço, só te peço


[Pré-refrão]

Parte 1

   C9    G    D4/F#  Em    D9(11)
E|-3-----3-----3-----0-----3----------------|
B|-3-----3-----3-----0-----3----------------|
G|-0-----0-----0-----0-----0----------------|
D|-2-----0-----0-----5-----4----------------|
A|-3-----2-----0-----7-----5----------------|
E|-------3-----2-----0----------------------|


Parte 2

   C9       G        D4
E|-3--------3--------3--------3--3-3-3-3-3--|
B|-3-----3--3-----3--3-----3--3--3-3-3-3-3--|
G|-0---0----0---0----2---2----2--2-2-2-2-2--|
D|-2-2------2-2------0-0------0--0-0-0-0-0--|
A|-3--------2-------------------------------|
E|----------3-------------------------------|
                              ↓  ↓ ↓ ↓ ↓ ↑

[Refrão]

C9      D4
   Fica
Em7           D4                G/B
    Fica, me queira e queira ficar
C9      D4
   Fica
Em           Am
   Fica, me queira, queira

[Primeira Parte]

 C9
Mapeei a dedo tuas sardas
 D4
Viajei nas suas entrelinhas
 Em
Que te entregam e desvendam
      Bm
O melhor em ti

 C9
Me perdi no céu da sua boca
 D4
Me reencontrei nas suas curvas
   Em
Você é labirinto, rua sem saída
 A7
Me rendi a tua alma nua, vem cá

[Pré-refrão]

C9                  G
   Congela o teu olhar no meu
                D4/F#
Esconde que já percebeu
               Em         D9(11)
Que todo meu amor é teu amor

           C9
Então vem cá
                  G
Que nós, até Caio escreveu
                D4
Parece que nos conheceu

Em mel e girassóis te peço, só te peço

[Refrão]

C9      D4
   Fica
Em7           Am                G/B
    Fica, me queira e queira ficar
C9      D4
   Fica
 Em7
Faz o que quiser de mim
          Am
Contanto que não falte tempo
  G/B    C9
Pra me amar

     D4
Fica
Em7           D4                G/B
    Fica, me queira e queira ficar
C9      D4
   Fica
 Em7
Faz o que quiser de mim
          Am
Contanto que não falte tempo
  G/B    C9
Pra me amar

D4          Em7
Ai ai ai ai ai
             D4
Oh oh oh oh,    oh oh oh oh

C9
Ai ai ai ai ai
D4          Em7
Ai ai ai ai ai
             A7              G/B
Oh oh oh oh,    oh oh oh oh

[Base Solo Final]

C9  D4  Em7  A7

[Solo Final]

E|----------------------------------------------------|
B|-3----3-----------3----3----------------------------|
G|---4~---4~--0-2~----4~---4~--0-2~-------------------|
D|----------------------------------------------------|
A|----------------------------------------------------|
E|----------------------------------------------------|
Compositor não encontrado.
Colaboración y revisión:
  • Lucas Kappaun
  • José Delphino
971 vistas
    • ½ Tono
    • A
    • Bb
    • B
    • C
    • Db
    • D
    • Eb
    • E
    • F
    • F#
    • G
    • Ab
  • Agregar a la lista

    0 comentarios

    Ver todos los comentarios

    ¿Lograste tocar?

    4 Tocaron 2 Aún no

    ¡Graba un video tocando Fica (part. Ana Vitória) y envíanoslo!

    00:00 / 00:00
    Outros vídeos desta música
    Repetir Calidad Automático
    Outros vídeos desta música
    00:00 / 00:00
    Automático
    OK