Cifra Club

Me Amar Amanhã

Matheus e Kauan

Cifrado: Principal (guitarra y guitarra eléctrica)
Já pensou em usar uma coleção de roupas do Cifra Club? Responda as perguntas abaixo e nos ajude nessa missão! →
tono: C
[Intro] F  G  Am  C
        F  G

E|----------------------------------------------------|
B|-5-5---3-3-----1------------------------------------|
G|----------------------------------------------------|
D|----------------------------------------------------|
A|----------------------------------------------------|
E|----------------------------------------------------|

E|----------------------------------------------------|
B|-5-5---3-3---1-1h3----------------------------------|
G|----------------------------------------------------|
D|----------------------------------------------------|
A|----------------------------------------------------|
E|----------------------------------------------------|

E|---------------0-1-0-1-0-1-0-1-3-1-0-1-3------------|
B|-5-5---3-3---1----------------------------1-3-1-----|
G|----------------------------------------------------|
D|----------------------------------------------------|
A|----------------------------------------------------|
E|----------------------------------------------------|

E|----------------------------------------------------|
B|--1-3---1---0---------------------------------------|
G|----------------------------------------------------|
D|----------------------------------------------------|
A|----------------------------------------------------|
E|----------------------------------------------------|

[Primeira parte]

 Am
Meu corpo está pedindo
 G
Mais uma vez o seu
   Am
O seu cheiro ainda prende
   G
O meu pensamento ao seu
              F       G
Eu quero mais uma vez
            Am
Sentir esse arrepio
           F
Traga mais uma vez
G                       Am
  O seu calor pra espantar meu frio

[Refrão]

                   F                    G
O seu beijo de manhã com gosto de hortelã
               Am
Eu largo tudo hoje se você me prometer
                     F
Que vai me amar amanhã
                     G
Sabe que eu sou seu fã

               Am
Vamos virar a noite se você me prometer
                     F
Que vai me amar amanhã
       G  Am
De manhã

[Solo] F  G  Am  C
       F  G

E|----------------------------------------------------|
B|-5-5---3-3-----1------------------------------------|
G|----------------------------------------------------|
D|----------------------------------------------------|
A|----------------------------------------------------|
E|----------------------------------------------------|

E|----------------------------------------------------|
B|-5-5---3-3---1-1h3----------------------------------|
G|----------------------------------------------------|
D|----------------------------------------------------|
A|----------------------------------------------------|
E|----------------------------------------------------|

E|---------------0-1-0-1-0-1-0-1-3-1-0-1-3------------|
B|-5-5---3-3---1----------------------------1-3-1-----|
G|----------------------------------------------------|
D|----------------------------------------------------|
A|----------------------------------------------------|
E|----------------------------------------------------|

E|----------------------------------------------------|
B|--1-3---1---0---------------------------------------|
G|----------------------------------------------------|
D|----------------------------------------------------|
A|----------------------------------------------------|
E|----------------------------------------------------|

[Primeira parte]

 Am
Meu corpo está pedindo
 G
Mais uma vez o seu
   Am
O seu cheiro ainda prende
   G
O meu pensamento ao seu
              F       G
Eu quero mais uma vez
            Am
Sentir esse arrepio
           F
Traga mais uma vez
G                       Am
  O seu calor pra espantar meu frio

[Refrão]

                   F                    G
O seu beijo de manhã com gosto de hortelã
               Am
Eu largo tudo hoje se você me prometer
                     F
Que vai me amar amanhã
                     G
Sabe que eu sou seu fã

               Am
Vamos virar a noite se você me prometer
                     F
Que vai me amar amanhã
       G  Am
De manhã

                   F                    G
O seu beijo de manhã com gosto de hortelã
               Am
Eu largo tudo hoje se você me prometer
                     F
Que vai me amar amanhã
                     G
Sabe que eu sou seu fã

               Am
Vamos virar a noite se você me prometer
                     F
Que vai me amar amanhã
       G  Am
De manhã
Composición de Jairo Goes / Juliano Tchula / Marília Mendonça
Colaboración y revisión:
1.051 vistas
    • ½ Tono
    • A
    • Bb
    • B
    • C
    • Db
    • D
    • Eb
    • E
    • F
    • F#
    • G
    • Ab
  • Agregar a la lista

    0 comentarios

    Ver todos los comentarios
    00:00 / 00:00
    Outros vídeos desta música
    Repetir Calidad Automático
    Outros vídeos desta música
    00:00 / 00:00
    Automático
    OK