Cifra Club

Papel Amassado

Matheus e Kauan

Tablatura: Principal (guitarra)
tono: C
Solo Intro:

E|3-1-0---3-1-0---3-1-0------------------|
B|------1-------1-------1-5--------------|
G|---------------------------------------|
D|---------------------------------------|
A|---------------------------------------|
E|---------------------------------------|

C
Já faz meia hora que eu tô tentando entender
Am7
Será que eu pareço invisível pra você 
G
Tira o fone de ouvido
                             C
Se quer terminar de novo então fala

Passagem:

E|3-1-0---3-1-0---3-1-0------------------|
B|------1-------1-------1-5--------------|
G|---------------------------------------|
D|---------------------------------------|
A|---------------------------------------|
E|---------------------------------------|

C
Você não olha na minha cara mais
Am7
Chego cedo ou tarde, tanto faz
                   F                     Fm
Vai sair da minha vida, o meu coração duvida

Refrão:

                  C
Eu não posso aceitar, a gente separado
        Am7
Não vou assinar esse papel amassado
               F
Diz pro seu advogado, que ele entendeu errado
                     Fm
E que a gente tá voltando outra vez

Solo guitarra: C  Am7  F  Fm

C
Já faz meia hora que eu tô tentando entender
Am7
Será que eu pareço invisível pra você 
G
Tira o fone de ouvido
                             C
Se quer terminar de novo então fala

Você não olha na minha cara mais
Am7
Chego cedo ou tarde, tanto faz
                   F                   Fm
Vai sair da minha vida, o meu coração duvida

Refrão:

                  C
Eu não posso aceitar, a gente separado
        Am7
Não vou assinar esse papel amassado
               F
Diz pro seu advogado, que ele entendeu errado
                     Fm
E que a gente tá voltando
                  C
Eu não posso aceitar, a gente separado
        Am7
Não vou assinar esse papel amassado
               F
Diz pro seu advogado, que ele entendeu errado
                     Fm
E que a gente tá voltando outra vez
Composição de Latino / Matheus Aleixo
Colaboración y revision:
404 reproducciones
    • ½ Tono
    • A
    • Bb
    • B
    • C
    • Db
    • D
    • Eb
    • E
    • F
    • F#
    • G
    • Ab
  • Adicionar à lista

    0 comentarios

    Ver todos os comentários
    00:00 / 00:00
    outros vídeos desta música
    repetir qualidade Automático
    Outros vídeos desta música
    00:00 / 00:00
    Automático
    OK