Cifra Club

Paraquedas

Matheus e Kauan

Tablatura: Principal (guitarra)
Já pensou em usar uma coleção de roupas do Cifra Club? Responda as perguntas abaixo e nos ajude nessa missão! →
tono: B
Intro:
   E B                E          B                 E
E|-------------------------------------------7-9-9/11-9-7/9-7-|
B|-2/4-5/7-7--4-5-7-7/9-7-5-----2/4-5/7-7--9------------------|
G|--------------------------4---------------------------------|
D|------------------------------------------------------------|
A|------------------------------------------------------------|
E|------------------------------------------------------------|

 B
Será que ainda não percebeu que eu me atrapalho
    E
E que as palavras fogem do meu vocabulário
       F#
Que eu gelo todo dos pés a cabeça
                 B
Quando eu me aproximo de você.

 B
Parece que o peito grita na garganta.
  E
E o meu coração, quase sai pela boca.
   F#
Eu arrepio o corpo inteiro
                      B
Toda vez que eu chego perto de você

         C#m                            B|-5-4-2---|
E o coração, já bate fora do compasso   G|-------1-|
          G#m
E essa paixão que vai tomando todo espaço
         C#m
Será que não dá pra entender

Que a cabeça já não pensa
        F#
Só quer te querer.

Refrão 2x:
                      B
Eu vou saltar de paraquedas

Eu vou voar de asa-deltas
                      E
Vou fazer tudo que o medo

Não me deixa fazer
                         F#
Vou me arriscar correr perigo

Pagar mico pros amigos
                     B
Vou roubar um beijo de você, cê vai ver
Intro:
   E B                E          B                 E
E|-------------------------------------------7-9-9/11-9-7/9-7-|
B|-2/4-5/7-7--4-5-7-7/9-7-5-----2/4-5/7-7--9------------------|
G|--------------------------4---------------------------------|
D|------------------------------------------------------------|
A|------------------------------------------------------------|
E|------------------------------------------------------------|

         C#m                            B|-5-4-2---|
E o coração, já bate fora do compasso   G|-------1-|
          G#m
E essa paixão que vai tomando todo espaço
         C#m
Será que não dá pra entender

Que a cabeça já não pensa
        F#
Só quer te querer.

Refrão 2x:
                      B
Eu vou saltar de paraquedas

Eu vou voar de asa-deltas
                      E
Vou fazer tudo que o medo

Não me deixa fazer
                         F#
Vou me arriscar correr perigo

Pagar mico pros amigos
                     B
Vou roubar um beijo de você, cê vai ver
Solo:
    C#m               F#
E|-----------------------7---------|
B|-5/7-5-5h7p5-------7/9---9\7---5-|
G|-------------6-4-------------6---|
D|---------------------------------|
A|---------------------------------|
E|---------------------------------|

Refrão 2x:
                      B
Eu vou saltar de paraquedas

Eu vou voar de asa-deltas
                      E
Vou fazer tudo que o medo

Não me deixa fazer
                         F#
Vou me arriscar correr perigo

Pagar mico pros amigos
                     B
Vou roubar um beijo de você, cê vai ver
Composição de RICHARDSON MAIA
Colaboración y revision:
  • Allan caixeta
  • João Branquinho
130 reproducciones
    • ½ Tono
    • A
    • Bb
    • B
    • C
    • Db
    • D
    • Eb
    • E
    • F
    • F#
    • G
    • Ab
  • Adicionar à lista

    0 comentarios

    Ver todos os comentários
    00:00 / 00:00
    outros vídeos desta música
    repetir qualidade Automático
    Outros vídeos desta música
    00:00 / 00:00
    Automático
    OK