Cifra Club

Pedacim de Noite

Matheus e Kauan

Tablatura: Violao-2 (guitarra)
tono: Am (con acordes en la forma de Em) Capotraste na 5ª casa
[Intro] C  D  Em7

(Violão 1 - Sem Capotraste)

   F        G          Am7
E|----------------------------------------------------|
B|-1-1------1h3--1h3---5~----------5h6p5---6/8/6p5----|
G|----------0----0-----5~----------5h7p5---7/9/7p5----|
D|-3-3------------------------------------------------|
A|----------------------------------------------------|
E|----------------------------------------------------|

(Violão 2 - Capotraste 5ª casa)

   F        G          Am7
E|-----0----------------------------------------------|
B|-------3--3---3------3------------------------------|
G|----------0h2-0h2-----------------------------------|
D|---2------------------------------------------------|
A|-3--------------------------------------------------|
E|----------------------------------------------------|

(Violão 1 - Sem Capotraste)

   F        G          Am7
E|----------------------------------------------------|
B|-1| —1------1h3--1h3---1-------3h5p3p1--------------|
G|----------0----0-----2------------------------------|
D|-3-3------------------------------------------------|
A|----------------------------------------------------|
E|----------------------------------------------------|

(Violão 2 - Capotraste 5ª casa)

   F        G          Am7
E|-----0----------------------------------------------|
B|-------3--3---3--------------3----------------------|
G|----------0h2-0h2----0----------------------0-------|
D|---2------------------------------------3h5---5p3p0-|
A|-3--------------------------------------------------|
E|----------------------------------------------------|

[Primeira Parte]

    Em7
Eu sei, você deixou bem claro
         C
Que era só mais um encontro avulso
           G
Ninguém aqui queria sentimento
       D
Mas a gente mandou bem no escuro

               C
Como é que eu vou se quero ficar?
            D
Como é que fica se preciso ir?
            Em7
Me diz como é que eu vou me levantar
                 
Dessa cama e sair

[Pré-Refrão]

               C
Se o problema dorme aqui
               D
Se o problema dorme aqui?

[Refrão]

               C
Bastou um pedacinho de noite
              D
Pra me apaixonar
                   Em7
Cê fez amor de um jeito que eu vou
            G
Mas vou voltar

                C
Já tô passando aí
                             D
Perdoa a minha falta de atenção
                 Em7
Esqueci meu coração

               C
Bastou um pedacinho de noite
              D
Pra me apaixonar
                   Em7
Cê fez amor de um jeito que eu vou
            G
Mas vou voltar

                C
Já tô passando aí
                             D
Perdoa a minha falta de atenção
                 Em7  D/F#  G9
Esqueci meu coração

[Solo] C  D  G  D/F#  Em7

[Primeira Parte]

    Em7
Eu sei, você deixou bem claro
         C
Que era só mais um encontro avulso
           G
Ninguém aqui queria sentimento
       D
Mas a gente mandou bem no escuro

               C
Como é que eu vou se quero ficar?
            D
Como é que fica se preciso ir?
            Em7
Me diz como é que eu vou me levantar
                 
Dessa cama e sair

[Pré-Refrão]

               C
Se o problema dorme aqui
               D
Se o problema dorme aqui?

[Refrão]

               C
Bastou um pedacinho de noite
              D
Pra me apaixonar
                   Em7
Cê fez amor de um jeito que eu vou
            G
Mas vou voltar

                C
Já tô passando aí
                             D
Perdoa a minha falta de atenção
                 Em7
Esqueci meu coração

               C
Bastou um pedacinho de noite
              D
Pra me apaixonar
                   Em7
Cê fez amor de um jeito que eu vou
            G
Mas vou voltar

                C
Já tô passando aí
                             D
Perdoa a minha falta de atenção
                 Em7  D/F#  G9
Esqueci meu coração

[Final] D  C  Em7
Composição de Alvino Alves / Diego Silveira / Henrique Casttro / Marcia Araújo
Colaboración y revision:
  • Getúlio Vasconcelos
31 reproducciones
    • ½ Tono
    • Am
    • Bbm
    • Bm
    • Cm
    • C#m
    • Dm
    • Ebm
    • Em
    • Fm
    • F#m
    • Gm
    • G#m
  • Adicionar à lista

    0 comentarios

    Ver todos os comentários
    00:00 / 00:00
    outros vídeos desta música
    repetir qualidade Automático
    Outros vídeos desta música
    00:00 / 00:00
    Automático
    OK