Cifra Club

Piseiro

Matheus e Kauan

Tablatura: Principal (guitarra)
tono: B (con acordes en la forma de A) Capotraste na 2ª casa
[Intro] A9  F#m  D9  Bm  E  

E|------------------------------------------|
B|------------------------------------------|
G|-----4-4/6-4----------4-4/6-4---6/7-------|
D|-6/7---------7-4--6/7---------7-----------|
A|------------------------------------------|
E|------------------------------------------|

E|------------------------------------------|
B|------------------------------------------|
G|-6/7-7-7--7p6---4--4-4\2--2/9-------------|
D|--------------7---------------------------|
A|------------------------------------------|
E|------------------------------------------|

[Primeira Parte]

F#m                   C#m7
    Ela já partiu pra outra
D9                   A9
   E eu ainda tô naquela
F#m                   C#m7
    De virar e ficar louco
D9                  A9
   E ligar bebo pra ela

[Pré-Refrão]

Bm                          F#m
   Se você não sofreu por amor
                      E/G#  A9
Não conhece um terço da    dor
                          E
Que eu tô sentindo aqui agora
Bm                       F#m
   Imagina cê ver seu neném
                        E/G# A9
Postar foto dizendo: hoje   tem
                           E
Na balada, solteira, essa hora

[Refrão]

              A9
Bateu o desespero
                                   F#m
Eu sofrendo por ela e ela só no piseiro
                      D9  A/C#     
E ainda mandou me avisar
Bm                          E
   Que dessa noite ela não passa sem beijar

              A9
Bateu o desespero
                                 F#m
Eu sofrendo por ela ela só no piseiro
                      D9  A/C#     
E ainda mandou me avisar
Bm                          E
   Que dessa noite ela não passa sem beijar
                      
Ela botou foi pra torar

[Solo] F#m  D9  Bm  E 

E|------------------------------------------|
B|------------------------------------------|
G|-2/4-6p4------2/4-6p4-----6/7-------------|
D|---------7-4----------6h7-----------------|
A|------------------------------------------|
E|------------------------------------------|

E|------------------------------------------|
B|------------------------------------------|
G|-6/7-7-7-7p6-4-4--4\2-2-2\1---------------|
D|------------------------------------------|
A|------------------------------------------|
E|------------------------------------------|

E|------------------------------------------|
B|-------2-3-5-5/7--------------------------|
G|-1-2-4------------------------------------|
D|------------------------------------------|
A|------------------------------------------|
E|------------------------------------------|

[Pré-Refrão]

Bm                          F#m
   Se você não sofreu por amor
                      E/G#  A9
Não conhece um terço da    dor
                          E
Que eu tô sentindo aqui agora
Bm                       F#m
   Imagina cê ver seu neném
                        E/G# A9
Postar foto dizendo: hoje   tem
                           E
Na balada, solteira, essa hora

[Refrão]

              A9
Bateu o desespero
                                   F#m
Eu sofrendo por ela e ela só no piseiro
                      D9  A/C#     
E ainda mandou me avisar
Bm                          E
   Que dessa noite ela não passa sem beijar

              A9
Bateu o desespero
                                 F#m
Eu sofrendo por ela ela só no piseiro
                      D9  A/C#     
E ainda mandou me avisar
Bm                          E
   Que dessa noite ela não passa sem beijar
                     A9
Ela botou foi pra torar

[Final]

E|------------------------------------------|
B|------------------------------------------|
G|-2/4-6p4----------------------------------|
D|---------7-6/7--7-7/9-9-9/11--------------|
A|------------------------------------------|
E|------------------------------------------|
Composição de Marcia Araújo / Os Parazim / Vineshow
Colaboración y revision:
2 reproducciones
  • Simplificar cifra
    • ½ Tono
    • A
    • Bb
    • B
    • C
    • Db
    • D
    • Eb
    • E
    • F
    • F#
    • G
    • Ab
  • Adicionar à lista

    0 comentarios

    Ver todos os comentários
    00:00 / 00:00
    outros vídeos desta música
    repetir qualidade Automático
    Outros vídeos desta música
    00:00 / 00:00
    Automático
    OK