Cifra Club

Tinha Que Ser Eu

Matheus e Kauan

Cifrado: Principal (guitarra y guitarra eléctrica)
tono: Bb (con acordes en la forma de G) Capotraste en 3ª casa
Intro 2x: Am  G

Solo Intro: 

Parte 1
E|-------------0--------------------------------------------|
B|-3h6-3-1--------------------------------------------------|
G|---------4-2---2----4h5-4---------------------------------|
D|----------------------------------------------------------|
A|----------------------------------------------------------|
E|----------------------------------------------------------|

Parte 2
E|-------------3-0------------------------------------------|
B|-3h6-3-1---------3-1--------------------------------------|
G|---------4-2----------0-----------------------------------|
D|----------------------------------------------------------|
A|----------------------------------------------------------|
E|----------------------------------------------------------|

Primeira parte:

C9
Ela é uma menina tímida e calada
                                G
Prefere ficar em casa e ler um livro antes de dormir
Seu autor preferido, Machado de Assis

Segunda parte:

C9
Eu totalmente ao contrário
Gosto de baralho, boteco e cigarro
                 G
Sou meio desligado nessa relação
Quando esqueço alguma data dói seu coração

Pré-Refrão:

Am
Ela gosta de ver novela
           G/B     C9
E eu só vejo futebol e já desligo a tela
          G
Ela é de libra e eu sou de touro
                     D
Mas temos algo em comum
O amor pelo outro

Refrão:

G
Mas olha que ironia
A gente é prova viva
                                           C9
Que os opostos se atraem quando existe amor
No fundo eu já sabia que essa tão menina
                                        Am
Aos olhos de outro cara não ia ter valor
Tinha que ser eu
            G/B    C9
Pra todo sempre eu
                       G
Meu coração te escolheu

Base solo 2x: Am  G

Solo: 

Parte 1
E|-------------0--------------------------------------------|
B|-3h6-3-1--------------------------------------------------|
G|---------4-2---2----4h5-4---------------------------------|
D|----------------------------------------------------------|
A|----------------------------------------------------------|
E|----------------------------------------------------------|

Parte 2
E|-------------3-0------------------------------------------|
B|-3h6-3-1---------3-5-6-3h5--------------------------------|
G|---------4-2----------------------------------------------|
D|----------------------------------------------------------|
A|----------------------------------------------------------|
E|----------------------------------------------------------|

Segunda parte:

C9
Eu totalmente ao contrário
Gosto de baralho, boteco e cigarro
                G
Sou meio desligado nessa relação
Quando esqueço alguma data dói seu coração

Pré-Refrão:

Am
Ela gosta de ver novela
          G       C9
E eu só vejo futebol e já desligo a tela
           G
Ela é de libra e eu sou de touro
                     D
Mas temos algo em comum
O amor pelo outro

Refrão 2x:

G
Mas olha que ironia
A gente é prova viva
                                           C9
Que os opostos se atraem quando existe amor
No fundo eu já sabia que essa tão menina
                                        Am
Aos olhos de outro cara não ia ter valor
Tinha que ser eu
            G    C9
Pra todo sempre eu
                       G
Meu coração te escolheu
Composición de Gabriel Agra / Philipe Pancadinha / Victor Hugo
1.550 vistas
    • ½ Tono
    • A
    • Bb
    • B
    • C
    • Db
    • D
    • Eb
    • E
    • F
    • F#
    • G
    • Ab
  • Agregar a la lista

    0 comentarios

    Ver todos los comentarios
    00:00 / 00:00
    Otros videos de esta canción
    Repetir Calidad Automático
    Otros videos de esta canción
    00:00 / 00:00
    Automático
    OK