Cifra Club

Dispatch The Troops

Matisyahu

Cifrado: Principal (guitarra y guitarra eléctrica)
tono: A
Tab by: Adam W (*)

INTRO


Cmin          AbMaj         EbMaj        Gmin
----------------------------------------------------------------------|
----------------------------------------------------------------------|
----(guitar plays effects/reverb chords through these changes)--------|
----------------------------------------------------------------------|
--------------(repeat 4X)---------------------------------------------|
----------------------------------------------------------------------|


VERSE

  Cmin                AbMaj           EbMaj         Gmin
-------------------------------------------------------------------------|
----4-----4h6p4-------------4-----4h6/8-----6h8p6--------8---------------|
------5---------5--------5-----5---------8--------7---7----7-------------|
--5-----5---------5---6-----------------------------8---------8----------|
-------------------------------------------------------------------------|
-------------------------------------------------------------------------|

  Cmin                AbMaj             EbMaj           Gmin
----------------------------4h6p4--------------6h8p6----------------------|
------4-----4h6p4-------------------4h6/8----8-------8--------------------|
------------------5-------5-------5--------8-----------8------------------|
--5-----5-----------5--6---------------------------------4/5-4/5-4/5------|
--------------------------------------------------------------------------|
--------------------------------------------------------------------------|
Repeat 4X


CHORUS - Part1

Fmin                                Fmin
--1--1-----------8------------------1--1-----------8----------------------|
--1--1----9--11-----11--9--8--------1--1----9--11-----11--9----8----6-----|
--1--1------------------------------1--1----------------------(8)--(7)----|
--3--3------------------------10----3--3----------------------(10)-(8)----|
--3--3------------------------------3--3----------------------------------|
--------------------------------------------------------------------------|


CHORUS - Part2

 EbMaj     BbMaj     Fmin     AbMaj BbMaj Cmin     BbMaj     Fmin      AbMaj
--6----6----6----6----1----1--------------8----8----6----6----1----1----4----4----|
--8----8----6----6----1----1----4----6----8----8----6----6----1----1----4----4----|
--8----8----7----7----1----1----5----7----8----8----7----7----1----1----5----5----|
------------8----8----3----3----6----8----10---10---8----8----3----3----6----6----|
------------8----8----3----3----6----8----10---10---8----8----3----3----6----6----|
----------------------------------------------------------------------------------|
repeat once


BRIDGE - hits on these voicings

   Cmin  AbMaj   EbMaj  Gmin
----3------4------6------3-----|
----4------4------8------3-----|
----5------5------8------3-----|
----5------6-------------5-----|
-----------6-------------5-----|
-------------------------------|



1. INTRO
2. VERSE
3. CHORUS - Part1
4. CHORUS - Part2
5. VERSE
6. CHORUS - Part1
7. CHORUS - Part2
8. INTRO
9. BRIDGE
10. CHORUS - Part1
11. CHORUS - Part2
Composición de Aaron Dugan / Gordon Sumner / Josh Werner
58 vistas
    • ½ Tono
    • A
    • Bb
    • B
    • C
    • Db
    • D
    • Eb
    • E
    • F
    • F#
    • G
    • Ab
  • Agregar a la lista

    0 comentarios

    Ver todos los comentarios

    ¿Lograste tocar?

    0 Tocaron 0 Aún no

    ¡Graba un video tocando Dispatch The Troops y envíanoslo!

    00:00 / 00:00
    Outros vídeos desta música
    Repetir Calidad Automático
    Outros vídeos desta música
    00:00 / 00:00
    Automático
    OK