Cifra Club

King Without A Crown Solo

Matisyahu

Cifrado: Principal (guitarra y guitarra eléctrica)
tono: Bb
Standard tuning
e--------------------------------------------------------------------------|
B---------------------8h9p8------------8h9-11-9-8----8----------8b---------|
G-7h8----7h8p7h8-10---------8h10p8-10-------------10---10-8h10-8--8h10-8h10|
D--------------------------------------------------------------------------|
A--------------------------------------------------------------------------|
E--------------------------------------------------------------------------|

i finally saw the live video and so i need to correct a few things
e----------------------------------------------------------------------|
B----------------------------------------------------------------------|
G-p8-7h8p7-5--------5-5-------7----7----7----7----7b----7----7----7----8|
D------------8-8-8-8----5--5-5--5-5--5-5--5-5--5-5--5-5--5-5--5-5--5-5-|
A----------------------------------------------------------------------|
E----------------------------------------------------------------------|

e---------------|
B---------------|
G-8h10-8h10-12--|
D---------------|
A---------------|
E---------------|continues
                 
e------------------------------------------------------15--------------|
B---------------------------15h16h18-16-15---------18b----18-16p15-----|
G-15-17-17-------15h16h17-----------------17-15-17-----------------15--|
D----------15h17-------------------------------------------------------|
A----------------------------------------------------------------------|
E----------------------------------------------------------------------|

e-----18b-18-15--------------------------------------------------------|
B---------15----18-16-15----18-16-15-------16-15----------15-----------|
G-15---------------------17----------17-15-------17-15-------17-15-----|
D------------------------------------------------------17----------17--|
A----------------------------------------------------------------------|
E----------------------------------------------------------------------|

e------------------------15-15-----------------------------------------|
B--------------------18b-------18-16-15-16-18-16-15-16-----------------|
G--------------15h17-----------------------------------15h17-15h17-----|
D--15------------------------------------------------------------------|
A-----17-15-17---------------------------------------------------------|
E----------------------------------------------------------------------|

e----------------------------------------------------------------------|
B----------------------------------------------------------------------|
G-15h17-17-17-17----------------------------0-0-0-0-0-0-0-0-0-0-0-0-0--|
D----------------------------8-10-10--------5-5-5-5-5-5-5-5-5-5-5-5-5--|
A-----------------8-8-10-10-----------8-8-8----------------------------|
E----------------------------------------------------------------------|

This is my first solo so its probably not that good
Composición de Josh Werner
519 vistas
    • ½ Tono
    • A
    • Bb
    • B
    • C
    • Db
    • D
    • Eb
    • E
    • F
    • F#
    • G
    • Ab
  • Agregar a la lista

    0 comentarios

    Ver todos los comentarios

    ¿Lograste tocar?

    0 Tocaron 0 Aún no

    ¡Graba un video tocando King Without A Crown Solo y envíanoslo!

    00:00 / 00:00
    Outros vídeos desta música
    Repetir Calidad Automático
    Outros vídeos desta música
    00:00 / 00:00
    Automático
    OK