Cifra Club

King Without A Crown

Matisyahu

Cifrado: Principal (guitarra y guitarra eléctrica)
tono: F
Introdução
  
e|-------------------|---------------------1--------------|
B|-9-----8----3----4-|-11--9---9-------8-----3---3--4---4-|
G|-10----8----3----5-|----------10-------8-----3------5---|
D|-10----8----3----5-|---------------8--------------------|
A|-8-----6----1----3-|-------8-----6----------------------|
E|-------------------|------------------------------------|

e|----8--------6-----1-----------------------------|
B|-9----9--------8-----3---3-4---4---11-9--8--3--4-|
G|-10--------------------3-----5-----------8--3--5-|  
D|-10--------8-----------------------------8--3--5-|
A|-8-------6-------------------------------6--1--3-|
E|-------------------------------------------------|

verso
            
e|-4---4-8---8-6--6--6-6-|-4---4-8---8-8--8---8----8--8-|
B|-4---4-8---8-6--6--6-6-|-4---4-8---8-9--9---9----9--9-|
G|-5---5-9---9-7--7--7-7-|-5---5-9---9-10-10--10---10-10|  X's 6
D|-----------------------|------------------------------|
A|-----------------------|------------------------------|
E|-----------------------|------------------------------|

Refrão

e|-------4-4-4---4-3-3-3------------------------------3-3-3-3-|
B|-6-6-6-------6---------4-4-4\3-3-3-3-6-6-6-3--4-4-4---------|
G|------------------------------------------------------------|  X's 2
D|------------------------------------------------------------|
A|------------------------------------------------------------|
E|------------------------------------------------------------|

e|-3/4-4-4-8-8-8-4-8-6-6-6-----------------6-6-6---6--------------------|
B|-------------------------8-8-8-8p6-6-6-6-------6---8-8-8-4-4-4-4/6-6-6|
G|----------------------------------------------------------------------|
D|----------------------------------------------------------------------|
A|----------------------------------------------------------------------|
E|----------------------------------------------------------------------|

e|-4-4-4---4-3-3-3------------------------------|
B|-------6---------4-4-4-4\3-3-3-3-6-3-4~~~~~---|
G|----------------------------------------------|   
D|----------------------------------------------|   
A|----------------------------------------------|
E|----------------------------------------------|
Composición de Josh Werner
Colaboración y revisión:
  • amlk barreto
1.080 vistas
    • ½ Tono
    • A
    • Bb
    • B
    • C
    • Db
    • D
    • Eb
    • E
    • F
    • F#
    • G
    • Ab
  • Agregar a la lista

    0 comentarios

    Ver todos los comentarios

    ¿Lograste tocar?

    0 Tocaron 0 Aún no

    ¡Graba un video tocando King Without A Crown y envíanoslo!

    00:00 / 00:00
    Outros vídeos desta música
    Repetir Calidad Automático
    Outros vídeos desta música
    00:00 / 00:00
    Automático
    OK