Cifra Club

Sea To Sea

Matisyahu

Cifrado: Principal (guitarra y guitarra eléctrica)
tono: F
Tem uma introduçaozinha no baixo que é o seguinte: 

e ---------------------------------------------------- 
b----------------------------------------------------- 
g----------------------------------------------------- 
d----------------------------------------------------- 
a-----9-5-9 -----9-5-9-----9-5-9- -----------5-------- 
e--3---------- 3----------3----------3-3-6-6----------3x 

e ---------------------------------------------------- 
b----------------------------------------------------- 
g----------------------------------------------------- 
d---------------------------------------3~5-3---3~5-3- 
a-----9-5-9 -----9-5-9-----9-5-9-------------5-------- 
e--3---------- 3----------3--------------------------- 

Introdução da base:   Gm 

Gm 
Hashem S'fasai Tiftach u-fee yagid tehilasecha 
Hashem S'fasai Tiftach u-fee yagid tehilasecha 

Gm 
Open up my lips and my mouth shall declare your praise  yo 
Open up my lips and my mouth shall declare your praise  yo 

          Gm                  F              C                                       Dm 
From sea to shining sea, yoooooo 
          Gm                  F              C                                       Dm 
Searching for me, yeah, searching for me but you won't find me 
Gm                  F              C                  Dm 
All across the land,  
Gm                                    F                         C                                Dm 
digging through the sand yo, I said I'm digging through the sand 

Parte final 

e ---------------------------------------------------- 
b----------------------------------------------------- 
g----------------------------------------------------- 
d----------------------------------------------------- 
a---------3-5-5-5-6-3--------------------------------- 
e--3-3-6-------- --------6-3--------------------------Repete até o outro solinho de encerramento, que eu não consegui tirar ainda hahahah, mas eu tiro e coloco aqui pra vcs! 

Abraços!!!
Composición de Josh Werner
Colaboración y revisión:
  • gabriel nascimento
95 vistas
    • ½ Tono
    • A
    • Bb
    • B
    • C
    • Db
    • D
    • Eb
    • E
    • F
    • F#
    • G
    • Ab
  • Agregar a la lista

    0 comentarios

    Ver todos los comentarios

    ¿Lograste tocar?

    0 Tocaron 0 Aún no

    ¡Graba un video tocando Sea To Sea y envíanoslo!

    00:00 / 00:00
    Outros vídeos desta música
    Repetir Calidad Automático
    Outros vídeos desta música
    00:00 / 00:00
    Automático
    OK