Cifra Club

Youth

Matisyahu

Cifrado: Principal (guitarra y guitarra eléctrica)
tono: C
Introdução
      -----------------------|
      -----------------------|
      ------------5-5-5------|
      --7--7-7--5-5-5-5-5-7--|
      --7--7-7--5-3-3-3-5-7--|
      --5--5-5--3-------3-5--| 

 Verso: Am G  


Refrão
--5--------------|
--5--------------|
--5--------------|
--5--------------|
--7--------------|
-----------------|

-----8------7--5---5-----5--|
---5------5----5---5-----5--|
--5------5-----5---5h7---5--|
---------------5------------|
---------------7-------7----|
----------------------------|

"Youth is the engine of the world" :
-----------------10-10-8------------| 
--------10-10-10--------------------|
-7-7-7--------------------10-9-7----|
------------------------------------|
------------------------------------|
------------------------------------|
Composición de Josh Werner / Matthew Miller
Colaboración y revisión:
  • amlk barreto
191 vistas
    • ½ Tono
    • A
    • Bb
    • B
    • C
    • Db
    • D
    • Eb
    • E
    • F
    • F#
    • G
    • Ab
  • Agregar a la lista

    0 comentarios

    Ver todos los comentarios

    ¿Lograste tocar?

    0 Tocaron 0 Aún no

    ¡Graba un video tocando Youth y envíanoslo!

    00:00 / 00:00
    Outros vídeos desta música
    Repetir Calidad Automático
    Outros vídeos desta música
    00:00 / 00:00
    Automático
    OK