Cifra Club

Mato Seco (Resistência)

Mato Seco

Tab de bajo: Principal
Introdução

G|---------------------------------------------------------------------------------------|
D|---------------------------------------------------------------------------------------|
A|-------------7-----7--7-9-------------7---7-9------------7-----7---7-9-------------7---|
E|--7--7-7-7-7---7-7---------7--7-7-7-7---------7--7-7-7-7---7-7---------7--7-7-7-7------|

Base

G|---------------------------------------------------------------|
D|---------------------------------------------------------------|
A|-------9-9-9-9------9---------7-7-7-7-----7--------------------|
E|--7--7---------7--7---7-5---5---------5-5---5--7---------------|

Solo do teclado na meio da musica marcação com o baixo

G|---------------------------------------------------------------|
D|---------------------------------------------------------------|
A|------------5-5--5-5------------4--5--4------------------------|
E|--7-7--7-7------------6-6--6-6---------------------------------|
00:00 / 00:00
Otros videos de esta canción
Repetir
Otros videos de esta canción
Compositor no encontrado.
Colaboración y revisión:
  • Adonis Basilio
32 vistas

0 comentarios

Ver todos los comentarios

¿Lograste tocar?

0 Tocaron 0 Aún no

¡Graba un video tocando Mato Seco (Resistência) y envíanoslo!

00:00 / 00:00
OK