Cifra Club

Muito Querer

Mato Seco

Cifrado: Principal (guitarra y guitarra eléctrica)
tono: G
E|-------------------------------------------------
B|-------------------------------------------------
G|------------------------------------------------- 2x
D|--7h9---9-10-9---9-10-9--------------------------
A|--------------------------7/9---9-10-9---9-10-9--
E|-------------------------------------------------

E|--------|----------------------------------------
B|--------|----------------------------------------
G|--------|----------------------------------------
D|--7h9---|--12-10-9---------------9---------------
A|--------|----------10---7-9-10-7-----------------
E|--------|----------------------------------------

(Em, Bm)
Querem que você 3x  
Querem que você pense  
Que esta tudo bem  
Querem que você pense   
Que o mal não vem  
  
Querem que você   
fique olhando sentado  
pois não querem lhe ver   
lutando bem informado  
  
querem que você 3x  
  
e muito querer  
eles não têm moral   
pra dizer muito menos pra querer  

apagar a fumaça   
enquanto a muito mais o que fazer  
querem que você lute e se mate pra viver   
apagar a fumaça 
enquanto sentimos o fogo arder 
querem que voce lute e se mate pra viver  
  
enquanto eles assistem você  
morrer  
enquanto ratos assistem   
meu povo sofrer
  
e muito querer  
eles não têm moral   
pra dizer muito menos pra querer  

E|-------------------------------------------------
B|-------------------------------------------------
G|------------------------------------------------- 2x
D|--7h9---9-10-9---9-10-9--------------------------
A|--------------------------7/9---9-10-9---9-10-9--
E|-------------------------------------------------
  

E|-------------------      |----------------------------
B|-------------------      |---8-7---------8-7----------
G|--------7-9---9---- 2x   |-------9-7-9-------9-7------
D|--7h9--------9-----      |-----------------------9----
A|-------------------      |----------------------------
E|-------------------      |----------------------------

Compositor não encontrado.
Colaboración y revisión:
  • Moisés Borges
  • tiago lisboa
133 vistas
    • ½ Tono
    • A
    • Bb
    • B
    • C
    • Db
    • D
    • Eb
    • E
    • F
    • F#
    • G
    • Ab
  • Agregar a la lista

    0 comentarios

    Ver todos los comentarios

    ¿Lograste tocar?

    5 Tocaron 0 Aún no

    ¡Graba un video tocando Muito Querer y envíanoslo!

    00:00 / 00:00
    Outros vídeos desta música
    Repetir Calidad Automático
    Outros vídeos desta música
    00:00 / 00:00
    Automático
    OK