Cifra Club

Raiz Forte

Mato Seco

Tab de bajo: Principal
Acompaña nuestras novedades de Cifra Club en español.
¡Sigue nuestro perfil en Instagram!
G|-------------------------------------------------|
D|-------------------------------------------------|
A|---5-5-7-8-------------------------5-8--5--------|
E|-5---------------------------5-6-6--------8------|

G|-------------------------------------------------|
D|-------------------------------------------------|
A|---8-8--8----8-8--8----8--8----7-10--------------|
E|-8---------8---------8-------8-------8-----------|

G|-------------------------------------------------|
D|-------------------------------------------------|
A|-------------5---------------------------5-------|
E|-6--6-6--5-6---6-------------6--6-6--5-6---6-----|

G|-------------------------------------------------|
D|-------------------------------------------------|
A|-5-5-7-8---------------------5-5-7-8-------------|
E|----------5----------------8----------5----------|

G|-------------------------------------------------|
D|-------------------------------------------------|
A|-------------5-----------------------------5-----|
E|-6--6-6--5-6---6-------------6-6--6-6--5-6---6---|

G|-------------------------------------------------|
D|-------------------------------------------------|
A|-------------7---------------------------3-3-----|
E|-8--8-8--7-8---8----------8--5--5-5--3-5---------|
Composición de Rodrigo Piccolo
Colaboración y revisión:
  • João Dias
11 vistas

0 comentarios

Ver todos los comentarios

¿Lograste tocar?

0 Tocaron 0 Aún no

¡Graba un video tocando Raiz Forte y envíanoslo!

00:00 / 00:00
Outros vídeos desta música
Repetir Calidad Automático
Outros vídeos desta música
00:00 / 00:00
Automático
OK