Cifra Club

Salvação

Mato Seco

Tab de bajo: Principal
Acompaña nuestras novedades de Cifra Club en español.
¡Sigue nuestro perfil en Instagram!
Base
G|----------------------------------------|
D|----------------------------------------|
A|----4-4-4-4-4-2---0-2-0-2-4-2-----------|
E|-2---------------------------2----------|

Refrão
G|--------------------------------------------|
D|--------------------------------------------|
A|-5-------4-------2--------2-----------------|
E|---5-5--5--5-5-5---2-2--2---2-2-2-----------|

Composición de Rodrigo Pícolo
Colaboración y revisión:
  • Raphael Souza
23 vistas

0 comentarios

Ver todos los comentarios

¿Lograste tocar?

0 Tocaron 0 Aún no

¡Graba un video tocando Salvação y envíanoslo!

00:00 / 00:00
Outros vídeos desta música
Repetir Calidad Automático
Outros vídeos desta música
00:00 / 00:00
Automático
OK