Cifra Club

Dona de Mim

Matogrosso & Mathias

Cifrado: Principal (guitarra y guitarra eléctrica)
tono: A
Intro: A, D, A, E

E|------------------------------------------------|
B|-9/10-9-----------------9/10-9------------------|
G|--------9--9/11-----6/7--------6-9--7/6---------|
D|----------------7-9----------------------9------|
A|------------------------------------------------|
E|------------------------------------------------|


           A  E            F#m     C#m
Seu amor bateu e eu abri as portas
              D               Bm   E
Fui me entregando de tanta paixão, fiquei assim
        A     E                 F#m     C#m
Cego por você, só vi o que eu queria ver
           D                    Bm
Acreditei demais de tudo fui capaz
         E
Só agora pude entender

           A    E           F#m
Te fiz diferente no meu coração
              D                  Bm           E
Você foi meu mundo mergulhei no fundo dessa relação
       F#m             D                        Bm
E me afoguei, pois eu confiei só palavras nada mais
             E          A     E
Agora aqui pra mim, tanto faz

REFRÃO:

       A             E                 F#m
Sem amor, tudo que se diz é da boca pra fora
             C#m                   D              Bm             E
Tudo tem seu tempo certo e a minha hora de ser feliz ainda não chegou
        A          E             F#m
É isso que acontece quando se ama demais
         C#m                 D             A                  E
Nunca imaginei e você foi capaz de me machucar pra se sentir assim
D   E   A    E
Dona de mim

SOLO: A, E, F#m, C#m, D, Bm, E   2x


E|---------------------------------------------------------------------------------------------|
B|--2-2-2-2-2-5-3-2----------------2------------------------------------3-2--------------------|
G|-------------------2/4-2-2-2-2-2---2-1-1/2/1-------------------2-4/6-------4-2-2-4-4/6-------|
D|----------------------------------------------4-4-2-4-2-4-2-4--------------------------------|
A|---------------------------------------------------------------------------------------------|
E|---------------------------------------------------------------------------------------------|


           A    E           F#m
Te fiz diferente no meu coração
              D                  F#m            E
Você foi meu mundo mergulhei no fundo dessa relação
       F#m             D                        Bm
E me afoguei, pois eu confiei só palavras nada mais
             E          A     E
Agora aqui pra mim, tanto faz

       A             E                 F#m
Sem amor, tudo que se diz é da boca pra fora
             C#m                   D              Bm              E
Tudo tem seu tempo certo e a minha hora de ser feliz ainda não chegou
        A          E             F#m
É isso que acontece quando se ama demais
         C#m                 D             A                  E
Nunca imaginei e você foi capaz de me machucar pra se sentir assim
D   E   A    E
Dona de mim

Repete Refrão
Compositor não encontrado.
Colaboración y revisión:
  • Fernando Bomm
  • Antonio Fernandes
  • thiago
213 vistas
    • ½ Tono
    • A
    • Bb
    • B
    • C
    • Db
    • D
    • Eb
    • E
    • F
    • F#
    • G
    • Ab
  • Agregar a la lista

    0 comentarios

    Ver todos los comentarios
    00:00 / 00:00
    Outros vídeos desta música
    Repetir Calidad Automático
    Outros vídeos desta música
    00:00 / 00:00
    Automático
    OK