Cifra Club

Espinhos da Vida

Matogrosso & Mathias

Cifrado: Principal (guitarra y guitarra eléctrica)
tono: A
[Intro] A  Bm  E7  A  F#m  Bm  E7  A  Am

E|-------9--10--12--12--12--10--9---12--12--10-9--14-14--14--12--10--14--14--14--12--10---|
B|10--12----------------------------------------------------------------------------------|
G|----------------------------------------------------------------------------------------|
D|----------------------------------------------------------------------------------------|
A|----------------------------------------------------------------------------------------|
E|----------------------------------------------------------------------------------------|

E|--12-12-12-10-10-10-9-9-9--------------12-10-9--------|
B|---------------------------12-12-12-10---------12--10-|
G|------------------------------------------------------|
D|------------------------------------------------------|
A|------------------------------------------------------|
E|------------------------------------------------------|

 Am
Para que começar, tudo aquilo de novo
                                    G
Não ve que vamos dar, mais motivo pro povo
                                F
Que tanto já falou, para que recordar
                  Dm               E7
São palavras que só me fizeram chorar

 Am
No caminho da vida que é cheio de espinhos
                                  G
Sempre um pedacinho temos que passar
                                 F    Dm
Cada dia que passa eu concluo sozinho
                             E7  ( F#  G#  A )
Que o nosso romance precisa parar

 A                                            Bm
Por favor te peço não me procure é pro nosso bem
             E7                               A
Nós dois ja sofremos por esse mundo como ninguém
                             A7               D
E se me encontrar um dia na rua com outro alguém
          A             E7                   A  Am
Fique conformada são os espinhos que a vida tem

( A  Bm  E7  A  F#m  Bm  E7  A  Am )

 Am
No caminho da vida que cheio de espinhos
                               G
Sempre um pedacinho temos que passar
                               F      Dm
Cada dia que passa eu concluo sozinho
                             E7
Que o nosso romance precisa parar

 A                                            Bm
Por favor te peço não me procure é pro nosso bem
             E7                               A
Nós dois ja sofremos por esse mundo como ninguém
                             A7               D
E se me encontrar um dia na rua com outro alguém
          A             E7                   A  D
Fique conformada são os espinhos que a vida tem
          A             E7                   A  Am
Fique conformada são os espinhos que a vida tem
Composición de Euclides José Xavier / J. K. Filho / Matogrosso
Colaboración y revisión:
1.354 vistas
    • ½ Tono
    • A
    • Bb
    • B
    • C
    • Db
    • D
    • Eb
    • E
    • F
    • F#
    • G
    • Ab
  • Agregar a la lista

    0 comentarios

    Ver todos los comentarios
    00:00 / 00:00
    Outros vídeos desta música
    Repetir Calidad Automático
    Outros vídeos desta música
    00:00 / 00:00
    Automático
    OK