Cifra Club

Pele de Maçã

Matogrosso & Mathias

Cifrado: Principal (guitarra y guitarra eléctrica)
tono: G
[Intro] Am  D  G  C  G
        Am  D  G  C  G

E|------------------------------------------------|
B|-------7-8-------------7-8-10-12-10/12----------|
G|---7-9------------------------------------------|
D|-----------9/10-9-10----------------------------|
A|------------------------------------------------|
E|------------------------------------------------|

E|-----------------------------------------7-8-7--|
B|-------7-8-------------7-8-10-7-8---8-10--------|
G|---7-9------------------------------------------|
D|-----------9-10-10------------------------------|
A|------------------------------------------------|
E|------------------------------------------------|

             C  D              Bm  Em
Olhos de paixão, lábios de carmim
               Am            C
Beijo de hortelã, pele de maçã
  D           G
Cheiro de jasmim
            C    D         Bm  Em
Sorriso inocente, a me iludir
            Am               C  D
Voz de sedução, você é a canção
                  G    C G
Mais linda que eu ouvi

 D              Em
Minha loucura, minha ternura
C            D          G   D/F#  Em
Ah se eu soubesse escrever
    D                   Em
O quanto eu te amo, o quanto eu te adoro
          C         D           G
Nessa canção seria pouco pra dizer

         D           Em
Doce paixão, no coração
            C       D         G
Já não sei mais, viver sem você
         D           Em
Doce paixão, no coração
            C       D         G
Já não sei mais, viver sem você

[Solo] Am  D  G  C  G
       Am  D  G  C  G

E|------------------------------------------------|
B|-------7-8-------------7-8-10-12-10/12----------|
G|---7-9------------------------------------------|
D|-----------9/10-9-10----------------------------|
A|------------------------------------------------|
E|------------------------------------------------|

E|-----------------------------------------7-8-7--|
B|-------7-8-------------7-8-10-7-8---8-10--------|
G|---7-9------------------------------------------|
D|-----------9-10-10------------------------------|
A|------------------------------------------------|
E|------------------------------------------------|

            C    D         Bm  Em
Sorriso inocente, a me iludir
            Am               C  D
Voz de sedução, você é a canção
                  G    C G
Mais linda que eu ouvi

 D              Em
Minha loucura, minha ternura
C            D          G   D/F#  Em
Ah se eu soubesse escrever
    D                   Em
O quanto eu te amo, o quanto eu te adoro
          C         D           G
Nessa canção seria pouco pra dizer

         D           Em
Doce paixão, no coração
            C       D         G
Já não sei mais, viver sem você
         D           Em
Doce paixão, no coração
            C       D         G
Já não sei mais, viver sem você

         D           Em
Doce paixão, no coração
            C       D         G
Já não sei mais, viver sem você
         D           Em
Doce paixão, no coração
            C       D         G
Já não sei mais, viver sem você
Composición de Cecília Nena / Lalo Prado
1.416 vistas
    • ½ Tono
    • A
    • Bb
    • B
    • C
    • Db
    • D
    • Eb
    • E
    • F
    • F#
    • G
    • Ab
  • Agregar a la lista

    0 comentarios

    Ver todos los comentarios
    00:00 / 00:00
    Outros vídeos desta música
    Repetir Calidad Automático
    Outros vídeos desta música
    00:00 / 00:00
    Automático
    OK