Cifra Club

Por Que?

Matogrosso & Mathias

Cifrado: Principal (guitarra y guitarra eléctrica)
tono: G
[Intro] D7  G Em  B7  Em

E|--7--7-10--10--7---8--10-10--8-8--10-10-----------------------7-7---|
B|-----------------------------------------10--12--13-12--8--10-----8-|
G|--------------------------------------------------------------------|
D|--------------------------------------------------------------------|
A|--------------------------------------------------------------------|
E|--------------------------------------------------------------------|

E|-----7-------------7-------------3---7---12---|
B|--10----10--7--10-----10--8---5---------------|
G|----------------------------------------------|
D|----------------------------------------------|
A|----------------------------------------------|
E|----------------------------------------------|

  Em
Porque será que só agora
                               Am
Foi somente agora que você me quis
                     B7
Porque você não percebeu que em toda nossa vida
                   Em
Eu quis faze-la feliz

Agora vem arrependida
           E7               Am
Cansada da vida que você levou
                   Em
Agora pode até chorar
                B7                   E7
Pois o meu coração eu nunca mais te dou
Am                Em
Agora pode até chorar
                B7                   E  B7
Pois o meu coração eu nunca mais te dou
    E
Porque?

Porque será que só agora
                              B7
Foi somente agora que você mudou

Porque?

Será que em toda sua vida
                                  E   B7
Não sobrou um tempo pra me dar valor
  E
Agora

Agora olhando no espelho
                 E7                  A
Percebe que o tempo aos poucos te consome
                        E
Mulher você não teve sorte
                B7                 E
Pois é muito forte o coração de um homem
   A                    E
Mulher você não teve sorte
             B7                    E
Pois é muito forte o coração de um homem
Composición de Mathias / Matogrosso
Colaboración y revisión:
  • Gustavo Araújo
  • Luis Camillo
1.125 vistas
    • ½ Tono
    • A
    • Bb
    • B
    • C
    • Db
    • D
    • Eb
    • E
    • F
    • F#
    • G
    • Ab
  • Agregar a la lista

    0 comentarios

    Ver todos los comentarios
    00:00 / 00:00
    Outros vídeos desta música
    Repetir Calidad Automático
    Outros vídeos desta música
    00:00 / 00:00
    Automático
    OK