Cifra Club

Near Fantastica

Matthew Good

Cifrado: Principal (guitarra y guitarra eléctrica)
Selo Cifra Club: esta cifra foi revisada para atender aos critérios oficiais da nossa Equipe de Qualidade.
tono: F#
(0:56-1:26)
E|----------14---------------------------------------------|
B|-11s12-12---12-------------------------------------------|
G|--------------12-12h14-----------------------------------|
D|----------------------12h14------------------------------|
A|---------------------------12-----------5-7b8-5----------|
E|-------------------------------0-0-0-3-5-----------------|

E|------------------------------------------------------------|
B|--------------------------------(0)-(0)---------------------|
G|-9b10b9-7--2-4-4-2---------------4---2------(7)-7-9b10-7----|
D|------------------4bh5-4s2-2-------------4h5------------5-7-|
A|----------------------------5-(2)---------------------------|
E|------------------------------------------------------------|


for "the pink pills......drowning while they're telling him"
some variation of: (repeat and alter as needed)

B|-14-15-15-15----14-15-|
Gb|-14-14-14-14-14-14-14-|
D|-------------16-------|

(for this part there are some very lightly picked notes, that i
have not mentioned. you can listen to find out where these are.)

(2:21-2:55)
E|---------------------------------------------------------|
B|---------------------------------------------------------|
G|-7-9b10------7-9-9b10-----9b10--7-9-11-14-14-14-14-14-12-|
D|---------------------5-7---------------------------------|
A|-------9-7-5---------------------------------------------|
E|---------------------------------------------------------|

E|------------------------------------------------------------|
B|------------------------------------------------------------|
G|--7-9b10-7-------7--9b10-7--11-11s14-14-14------------------|
D|-5---------5-7--7----------7--------------------------------|
A|------------------------------------------------------------|
E|------------------------------------------------------------|

again:

B|-14-15-15-15----14-15-|
Gb|-14-14-14-14-14-14-14-|
D|-------------16-------|

(3:42-4:44)
E|---------------------------------------------------------|
B|--3-----------------------------------------7h8-10-8-7-5-|
G|---0----7-9b10-7--0---(9b10)-2h4--7-9-9b10-7-------------|
D|----4------------4-4-------------------------------------|
A|-5------------------5------------------------------------|
E|---------------------------------------------------------|
                    mute and slide
E|-------------------|---------------|----------5-5-5s7-7-----|
B|-8h10---8h10-8-----|---------------|----------3-3-3s5-5-----|
G|-----9--------9-7--|---------------|------5s7---------------|
D|-------------------|-X-X-X-X-X-X-X-|-5-7--7s9---------------|
A|-------------------|-X-X-X-X-X-X-X-|------------------------|
E|-------------------|---------------|------------------------|

slowly and softly
E|-5s7-14------14--14--14-------------------------------------|
B|-------12-12---12--12--12-12--------------------------------|
G|-------------------------------7-7-7-9b10-11~---------------|
D|------------------------------7-7-7-------------------------|
A|------------------------------------------------------------|
E|------------------------------------------------------------|
Otros videos de esta canción
    1 exhibiciones
      • ½ Tono
      • A
      • Bb
      • B
      • C
      • Db
      • D
      • Eb
      • E
      • F
      • F#
      • G
      • Ab
    • Agregar a la lista

    Afinação da cifra

    Afinador online

      Ops (: Contenido disponible solo en portugués.
      OK