Cifra Club

Lugar Distante

Matuê

Cifrado: Principal (guitarra y guitarra eléctrica)
tono: Eb
[Intro] Cm  Fm  A#  D#  Cm  Fm  G

 Cm             Fm       A#        D#       Cm      Fm        G 
E|----------------------------------------------------------------|
B|----------------------------------------------------------------|
G|5---5-3----------------3--5----3--------------------------------|
D|-----------6-5-3---5-6------5-----------5-------------------5---|
A|---------------------------------6--6-8---3----3--5/6--5-3------|
E|----------------------------------------------------------------|

Ayy, ayy, ayy
Cm            Fm
Maquinário insano, eu tô bongando
A#                 D#                   Cm
Dentro do Camaro branco, eu vou passar voando
             Fm              G
Tô de mala pronta, e eu só volto lá depois da ultima ponta

    Cm                  Fm
Ayy, freestyle lugar distante
               A#                D#
Vai, aperta o rec e taca fogo na blunt
               Cm                    Fm
Deixa o som bater na porra do alto-falante (ayy)
           G
E seus problemas vão ser irrelevantes (tem que sentir a vibe)

         Cm                         Fm
Me desliguei pra ir pra um lugar distante
             A#                D#
Longe dessa negatividade que expande
             Cm                   Fm
Ver o Sol descer na vegetação do mangue
        G
Viver a vida no estilo, me lambe (me encharquei demais)

Cm              Fm                A#            D#
Não é nada pra nós, cê quer haxi? Tem, extrato? Tem
       Cm           Fm
Cogu? Tem também, tem
                 G
O que te der vontade é só tu me ligar (basta você me ligar)
     Cm            Fm              A#        D#
Tic-tim dinheiro não é mais preocupação pra nós
                 Cm               Fm
Um sonho num instante, freestyle de um lugar distante
G
Pra deixar a tua cabeça dando um nó, ó, ó

 Cm             Fm       A#        D#       Cm      Fm        G 
E|----------------------------------------------------------------|
B|----------------------------------------------------------------|
G|5---5-3----------------3--5----3--------------------------------|
D|-----------6-5-3---5-6------5-----------5-------------------5---|
A|---------------------------------6--6-8---3----3--5/6--5-3------|
E|----------------------------------------------------------------|

Cm                  Fm           G                                  
Pra deixar a tua cabeça dando um nó, ó
                                 Cm
(Deixar a tua cabeça dando um nó, ó, ó, ó)
                Fm              A#   D#    Cm   Fm   G
Deixar a tua cabeça dando um nó, ó, oh, yeah
00:00 / 00:00
Otros videos de esta canción
Repetir
Otros videos de esta canción
Composición de Matue
Colaboración y revisión:
  • Velho Bodas
3 exhibiciones
    • ½ Tono
    • A
    • Bb
    • B
    • C
    • Db
    • D
    • Eb
    • E
    • F
    • F#
    • G
    • Ab
  • Agregar a la lista
    00:00 / 00:00
    OK