Cifra Club

Aprenda

War inna Babylon

Max Romeo

Tab de bajo: Principal
G|---------------------------------|---------------------------------|
D|-----------------5---------------|---------------------5---2---5---|
A|-------0-1-0---------------------|-------0-1-0---------------------|
E|-3---3-------3-------------------|-3---3-------3-------------------|

G|---------------------------------|---------------------------------|
D|---------------------5---2---5---|---------------------------------|
A|-3-3---3-3-----------------------|-3---3---3-----------3---1---0---|
E|---------------------------------|---------------------------------|
Compositor Max Romeo
Colaboración y revision:
  • Everton Damascena
6 reproducciones

0 comentarios

Mostrar mais comentários

¿Conseguiste tocar?

0 Tocaron 0 Ainda não

Grave um vídeo tocando War inna Babylon e mande pra gente!

00:00 / 00:00
outros vídeos desta música
repetir qualidade Automático
Outros vídeos desta música
00:00 / 00:00
Automático

Cifra Club Pro

Aproveite o Cifra Club com benefícios exclusivos e sem anúncios
7 dias grátis
Cifra Club Pro
Aproveite o Cifra Club com benefícios exclusivos e sem anúncios
7 dias grátis
OK