Cifra Club

Wet Dream

Max Romeo

Cifrado: Principal (guitarra y guitarra eléctrica)
tono: Ab
1968 

Intro/verse/chorus - Just repeat 
G|--------------------------| 
D|--------------------------| 
A|----------3--11-11-1----3-| 
E|-1-111-1------------------| 

Middle 8 
G|----------------------------------------------------------| 
D|----------------------------------------------------------| 
A|--------------------------------------------33-33-33-3----| 
E|-11-11-55-55-33-33-11-11-55-55-33-33-11-11----------------|
Composición de Max Romeo
Colaboración y revisión:
  • Everton Damascena
15 vistas
    • ½ Tono
    • A
    • Bb
    • B
    • C
    • Db
    • D
    • Eb
    • E
    • F
    • F#
    • G
    • Ab
  • Agregar a la lista

    0 comentarios

    Ver todos los comentarios

    ¿Lograste tocar?

    0 Tocaron 0 Aún no

    ¡Graba un video tocando Wet Dream y envíanoslo!

    00:00 / 00:00
    Outros vídeos desta música
    Repetir Calidad Automático
    Outros vídeos desta música
    00:00 / 00:00
    Automático
    OK