Cifra Club

Why Don't We Try Again

Brian May

Tablatura: Principal (guitarra)
Tom: G
INTRO
E|----5-----------------15-14--------------------------------------------------------------
B|--3----------------15-----------------------------------------------------------------------
G|----------------14-------------------------------------------------------------------------
D|-----------------------------------------------------------------------------------------
A|-----------------------------------------------------------------------------------------
E|-----------------------------------------------------------------------------------------

Centre          Left

CHORUS
E|--2------------2-----------2---3---------------------------------------------------------
B|--3----2---2---3---2---2---3---3---------------------------------------------------------
G|--2----2---2---2---2---2---2---2---------------------------------------------------------
D|--0----2---2---0---2---2---0---0----------------------------------------------------------
A|-------0---0-------0---0-----------------------------------------------------------------
E|-----------------------------------------------------------------------------------------

VERSE 2
E|-----14-15-14----------------------17-17-17---------------------17--------13-------------
B|--15-----------------3----------15-------------------------------------------------------
G|-----------------------------------------------------------------------------------------
D|-----------------------------------------------------------------------------------------
A|-----------------------------------------------------------------------------------------
E|-----------------------------------------------------------------------------------------

                                                                            Left

E|--15-17----------------------------------------------------------------------------------
B|-----------------------------------------------------------------------------------------
G|-----------------------------------------------------------------------------------------
D|-----------------------------------------------------------------------------------------
A|-----------------------------------------------------------------------------------------
E|-----------------------------------------------------------------------------------------

   Centre

CHORUS 2

This is the second guitar

E|--3-----2-0-2-----3-5-------7---8--7--5--------------------------------------------------
B|-----------------------------------------------------------------------------------------
G|-----------------------------------------------------------------------------------------
D|-----------------------------------------------------------------------------------------
A|-----------------------------------------------------------------------------------------
E|-----------------------------------------------------------------------------------------

SOLO

E|-----5-------6-8-8-7-6-5-5---------17-------22----24[25]-24--22--------3-5--5------------
B|--3-------3---------------------15-----15/--------------------------3--------------------
G|-----------------------------------------------------------------------------------------
D|-----------------------------------------------------------------------------------------
A|-----------------------------------------------------------------------------------------
E|-----------------------------------------------------------------------------------------

CHORUS 3

E|--14----14-15------14-15-14-15-14-14-16--------------------------------------------------
B|-----15-------15-------------------------------------------------------------------------
G|-----------------------------------------------------------------------------------------
D|-----------------------------------------------------------------------------------------
A|-----------------------------------------------------------------------------------------
E|-----------------------------------------------------------------------------------------

ENDING

E|----------14-15-17-15-----------17------------2-------1--3----2--------------------------
B|-------15-------------15------------------------3-----3--3----3--------------------------
G|--------------------------------------------------2---2--2----2--------------------------
D|------------------------------------------------------0--0----0--------------------------
A|-----------------------------------------------------------------------------------------
E|-----------------------------------------------------------------------------------------

For a list of easy tabs contact *
reproducciones 31
Acordes para:
    Composição: Brian May Colaboración y revision:
    • Filipe Castanha

    0 comentarios

    mostrar más comentarios

    ¿Conseguiste tocar?

    0 tocaron 0 aún no

    ¡Graba un vídeo tocando Why Don't We Try Again y envianoslo!

    00:00 / 00:00
    outros vídeos desta música
    repetir qualidade Automático
    Outros vídeos desta música
    00:00 / 00:00
    Automático
    OK