Cifra Club

Aprenda

Bum Bum Tam Tam

MC Fioti

Tablatura: Principal (guitarra)
tono: Db
E|--------------9---------------------------9--------------------------|
B|-----11-10-11---11---------------11-10-11---11-----------------------|
G|--10---------------10---------10---------------10--------------------|
D|----------------------8---------------------------8------------------|
A|---------------------------------------------------------------------|
E|---------------------------------------------------------------------|

E|---------------------------------------------------------------------|
B|-------------------------10-11---------------------------------------|
G|----10-11---11-10-8----10---------8----------------------------------|
D|-11-------7---------11--------------11-10-8--------7-----------------|
A|-------------------------------8-------------------------------------|
E|---------------------------------------------------------------------|

E|-----------------------|
B|-----------------------|
G|------8-6-----6-5------|
D|----8-----8-------8-7--|
A|--8--------------------|
E|-----------------------|  X2

E|--------------------------------------------------------------------|
B|--------------------------------------------------------------------|
G|------8-6-----------------------------------------------------------|
D|----8-----8--------7-------8-------7-------8---8---7---7---8-----7--|
A|--8-----------------------------------------------------------------|
E|--------------------------------------------------------------------|
                 "É a flauta envolvente..."




E|---------------------------------------------------------------------|
B|---------------------------------------------------------------------|
G|------6-5-------------8-6-------6-5------------8-6------6-5----------|
D|--8-------8-7-------8-----8---------8-7------8-----8--------8-7------|
A|------------------8------------------------8-------------------------|
E|---------------------------------------------------------------------|

E|--------------------------------------------------------------------|
B|--------------------------------------------------------------------|
G|------8-6----------------------------------8-6----8-6---------------|
D|----8-----8---------------------7-----7---------------8-------------|
A|--8---------------------------8-----8-------------------------------|
E|--------------------------------------------------------------------|
                           "Vai treme o bum bum..."




E|---------------------------------------------------------------------|
B|---------------------------------------------------------------------|
G|--6-5-------------8-6-------6-5------------8-6---------------8-6-----|
D|------8-7-------8-----8---------8-7------8-----8-------7---------8---|
A|--------------8------------------------8-------------8---------------|
E|---------------------------------------------------------------------|

E|---------------------------------------------------------------------|
B|---------------------------------------------------------------------|
G|-----------------------8p6-8p6-8p6-----------6-5---------------------|
D|----7------7------7----------------8--8-888------8-7-777-77----------|
A|--8------8------8----------------------------------------------------|
E|---------------------------------------------------------------------|

E|---------------------------------------------------------------------|
B|---------------------------------------------------------------------|
G|-------8-6------------6-5-----------------8-6-----5-6----5-6---------|
D|-----8-----8--8-888-------8-7-777-77----8-----8-------8------77777---|
A|---8----------------------------------8------------------------------|
E|---------------------------------------------------------------------|

E|---------------------------------------------------------------------|
B|---------------------------------------------------------------------|
G|------8-6----5-6----5-6-------------8-6------------------------------|
D|----8-----8------8------7-777-----8-----8------7--------8--------7---|
A|--8-----------------------------8------------------------------------|
E|---------------------------------------------------------------------|
                                              "É a flauta envolvente..."




E|-----------------------------------------------|
B|-----------------------------------------------|
G|---------------------------------------6-5-----|
D|--8---8---7---7---8-------7-------8--------8-7-|
A|-----------------------------------------------|
E|-----------------------------------------------|
   "... pra gente"




E|---------------------------------------------------------------------|
B|---------------------------------------------------------------------|
G|-------8-6-------6-5------------8-6-------6-5--------------8-6-------|
D|-----8-----8---------8-7------8-----8---------8-7--------8-----8-----|
A|---8------------------------8--------------------------8-------------|
E|---------------------------------------------------------------------|

E|---------------------------------------------------------------------|
B|---------------------------------------------------------------------|
G|-----------------8-6----8-6--------6-5------------8-6--------6-5-----|
D|----7------7----------------8----------8-7------8-----8----------8-7-|
A|--8------8------------------------------------8----------------------|
E|---------------------------------------------------------------------|
   "Vai treme o bum bum tam tam tam tam..."




E|---------------------------------------------------------------------|
B|---------------------------------------------------------------------|
G|-------8-6---------------8-6----------------------------8p6-8p6-8p6--|
D|-----8-----8--------7--------8-------7------7------7-----------------|
A|---8--------------8----------------8------8------8-------------------|
E|---------------------------------------------------------------------|

E|---------------------------------------------------------------------|
B|---------------------------------------------------------------------|
G|--------------6-5----------------8-6------------6-5------------------|
D|---8--8-888-------8-7-777-77---8-----8--8-888-------8-7-777-77-------|
A|-----------------------------8---------------------------------------|
E|---------------------------------------------------------------------|

E|---------------------------------------------------------------------|
B|---------------------------------------------------------------------|
G|------8-6-----5-6----5-6-------------8-6-----5-6----5-6--------------|
D|----8-----8-------8------77777-----8-----8-------8------7-777--------|
A|--8------------------------------8-----------------------------------|
E|---------------------------------------------------------------------|

E|------------|
B|------------|
G|------8-6---|
D|----8-----8-|
A|--8---------|
E|------------|

E|-------------------------------------|
B|-------------------------------------|
G|----6-------8-------6-------6-5------|
D|------7-8-----7-8-----7-8-------8-7--|
A|----------8-------7-------5----------|
E|-------------------------------------|

Composição de Jackgba
Colaboración y revision:
  • Victor Rocha
  • Matheus Augusto
1.724 reproducciones
    • ½ Tono
    • A
    • Bb
    • B
    • C
    • Db
    • D
    • Eb
    • E
    • F
    • F#
    • G
    • Ab
  • Adicionar à lista

    0 comentarios

    Ver todos os comentários

    ¿Conseguiste tocar?

    7 Tocaram 16 Ainda não

    Grave um vídeo tocando Bum Bum Tam Tam e nos envie!

    00:00 / 00:00
    outros vídeos desta música
    repetir qualidade Automático
    Outros vídeos desta música
    00:00 / 00:00
    Automático
    OK