Cifra Club

Predador de Perereca

MC Jhey

Cifrado: Principal (guitarra y guitarra eléctrica)
tono: D
Primeira Parte
 
E|--------------------------2-2----------------------|
B|-0-7-7-8-7----7-7-5-5-5/3--------------------------|
G|---------------------------------------------------|
D|---------------------------------------------------|
A|---------------------------------------------------|
E|---------------------------------------------------|

E|----------------------5-5-2-2----------------------|
B|-0-7-7-8-7----7-7-5-5------------------------------|
G|---------------------------------------------------|
D|---------------------------------------------------|
A|---------------------------------------------------|
E|---------------------------------------------------|

E|------------------------2-2------------------------|
B|-0-7-7-8-7-7----5-5-5/3----------------------------|
G|---------------------------------------------------|
D|---------------------------------------------------|
A|---------------------------------------------------|
E|---------------------------------------------------|

E|---------------------------------------------------|
B|-0-7-7-8-7--7----5-5-5/3-3-2-0-(5-5-5/3-3-2-0)-----|
G|---------------------------------------------------|
D|---------------------------------------------------|
A|---------------------------------------------------|
E|---------------------------------------------------|
F#m                Bm            C#m
Espetacular o sorriso dessa princesa
F#m                     Bm              C#m
É de impressionar quando arrasto ela pra treta
F#m                 Bm          C#m
Não chama as amigas só ela da conta
F#m                    Bm          C#m
Pra três ela senta e mais três ela mama

Refrão:

E|---------------2-2---------------------------------|
B|-7p5-7p5-5-5/3-------------------------------------|
G|---------------------------------------------------|
D|---------------------------------------------------|
A|---------------------------------------------------|
E|---------------------------------------------------|

E|--------------------5-5-2-2------------------------|
B|-0-7-7-8-7--7-7-5-5--------------------------------|
G|---------------------------------------------------|
D|---------------------------------------------------|
A|---------------------------------------------------|
E|---------------------------------------------------|

E|------------------------2-2------------------------|
B|-0-7-7-8-7-7----5-5-5/3----------------------------|
G|---------------------------------------------------|
D|---------------------------------------------------|
A|---------------------------------------------------|
E|---------------------------------------------------|

E|---------------------------------------------------|
B|-0-7-7-8-7--7----5-5-5/3-3-2-0---------------------|
G|---------------------------------------------------|
D|---------------------------------------------------|
A|---------------------------------------------------|
E|---------------------------------------------------|

F#m       Bm     C#m
Eu, tu, nós bota nela
F#m                 Bm            C#m
O bonde chegou os predador de perereca
F#m             Bm           C#m
Sapeca, pepeca dividi essa tcheca
F#m                        Bm          C#m
Mas senta com força pros meninos da favela então
Composición de Dj Lucas
Colaboración y revisión:
  • Matheus Corrêa
  • Rafhael Abreu
  • Lucas Linhares
94 vistas
    • ½ Tono
    • A
    • Bb
    • B
    • C
    • Db
    • D
    • Eb
    • E
    • F
    • F#
    • G
    • Ab
  • Agregar a la lista

    0 comentarios

    Ver todos los comentarios

    ¿Lograste tocar?

    3 Tocaron 4 Aún no

    ¡Graba un video tocando Predador de Perereca y envíanoslo!

    00:00 / 00:00
    Outros vídeos desta música
    Repetir Calidad Automático
    Outros vídeos desta música
    00:00 / 00:00
    Automático
    OK