Cifra Club

Deixa Ela Beijar (part. Matheus e Kauan)

Kevinho

Tablatura: Principal (guitarra)
Tom: E
[Intro]  E  A9  E  A9

      E            A9
E|--------4-----------4------------|
B|--5-5-7-----5--7-7----7-5--------|
G|--------------------------6-4----|
D|---------------------------------|
A|---------------------------------|
E|---------------------------------|

      E            A9
E|--------4-----------4--5/7--4----|
B|--5-5-7-----5--7-7---------------|
G|---------------------------------|
D|---------------------------------|
A|---------------------------------|
E|---------------------------------|

E                A9
Ela tá afim de zoar com a minha cara
 E                                 A9
Disse que eu sou fraco, que eu sou isso, sou aquilo
 E                          A9
Sabe muito bem que a gente nunca teve nada
E                        A9
E pra aparecer jura que terminou comigo

        E
Então, vai dar de cara no chão
 B9
Não tem nem perigo
 C#m
Pode funcionar com outro
A9
  Mas não comigo
        E
Então, vai dar de cara no chão
 B9
Cê nem acredita
 C#m
Tô louco pra ver
        A9
Ela se jogando na pista

E
  Se ela quer dançar
        B9
Então, deixa ela dançar
C#m
  Se ela quer beijar
        A9
Então, deixa ela beijar
E                       B9
  Se ela quer até "fan fan ranran ranran"
    C#m
Eu não tô nem aí
       A9
É cada um com seus esquemas
E
  Se ela quer dançar
        B9
Então, deixa ela dançar
C#m
  Se ela quer beijar
        A9
Então, deixa ela beijar
E                       B9
  Se ela quer até "fan fan ranran ranran"
    C#m
Eu não tô nem aí
       A9
É cada um com seus esquemas

( E  A9 )
( E  A9 )

      E            A9
E|--------4-----------4------------|
B|--5-5-7-----5--7-7----7-5--------|
G|--------------------------6-4----|
D|---------------------------------|
A|---------------------------------|
E|---------------------------------|

      E            A9
E|--------4-----------4--5/7--4----|
B|--5-5-7-----5--7-7---------------|
G|---------------------------------|
D|---------------------------------|
A|---------------------------------|
E|---------------------------------|

E                A9
Ela tá afim de zoar com a minha cara
 E                                 A9
Disse que eu sou fraco, que eu sou isso, sou aquilo
 E                          A9
Sabe muito bem que a gente nunca teve nada
E                        A9
E pra aparecer jura que terminou comigo

        E
Então, vai dar de cara no chão
 B9
Não tem nem perigo
 C#m
Pode funcionar com outro
A9
  Mas não comigo
        E
Então, vai dar de cara no chão
 B9
Cê nem acredita
 C#m
Tô louco pra ver
        A9
Ela se jogando na pista

E
  Se ela quer dançar
        B9
Então, deixa ela dançar
C#m
  Se ela quer beijar
        A9
Então, deixa ela beijar
E                       B9
  Se ela quer até "fan fan ranran ranran"
    C#m
Eu não tô nem aí
       A9
É cada um com seus esquemas
E
  Se ela quer dançar
        B9
Então, deixa ela dançar
C#m
  Se ela quer beijar
        A9
Então, deixa ela beijar
E                       B9
  Se ela quer até "fan fan ranran ranran"
    C#m
Eu não tô nem aí
       A9
É cada um com seus esquemas
E
  Se ela quer dançar
        B9
Então, deixa ela dançar
C#m
  Se ela quer beijar
        A9
Então, deixa ela beijar
E                       B9
  Se ela quer até "fan fan ranran ranran"
    C#m
Eu não tô nem aí
       A9
É cada um com seus esquemas

[Final]  E  A9  E  A9

      E            A9
E|--------4-----------4------------|
B|--5-5-7-----5--7-7----7-5--------|
G|--------------------------6-4----|
D|---------------------------------|
A|---------------------------------|
E|---------------------------------|

      E            A9
E|--------4-----------4--5/7--4----|
B|--5-5-7-----5--7-7---------------|
G|---------------------------------|
D|---------------------------------|
A|---------------------------------|
E|---------------------------------|
reproducciones 64
Acordes para:
    Colaboración y revision:
    • Lucas Kappaun
    • Léo Correia
    • Leonardo Camargo

    0 comentarios

    mostrar más comentarios

    ¿Conseguiste tocar?

    3 tocaron 0 aún no

    ¡Graba un vídeo tocando Deixa Ela Beijar (part. Matheus e Kauan) y envianoslo!

    00:00 / 00:00
    outros vídeos desta música
    repetir qualidade Automático
    Outros vídeos desta música
    00:00 / 00:00
    Automático
    OK