Cifra Club

Ela É Só Dela (part. Lucas Lucco)

Kevinho

Tablatura: Principal (guitarra)
Tom: G
[Intro] Am  G  Dm  Am  G  

E|----------12--10---------------------12-10----------|
B|-10-12-13--------13-10------10-12-13-------13-10----|
G|-----------------------12------------------------12-|
D|----------------------------------------------------|
A|----------------------------------------------------|
E|----------------------------------------------------|

[Primeira Parte]

 Am                                  Dm
Foi só botar um pezim na vida de solteira 
              Em
Pra ela desandar 
 Am        
Nessa altura da balada 
              Dm                 Em
Vem um tal de ex pedindo pra voltar
 
[Pré-Refrão]

Quem diria 
  Dm                   Em  
Quem tava amarrada descendo soltinha  
  Am
Quem diria
   Dm             Em  
Desapaixonada, desapegadinha 

[Refrão]

 Dm
Dá Tchauzim pra ela
  Am            G
Que era sua do verbo já era  
 Dm
Da Tchauzim pra ela
     Am                 G 
Que desce e rebola porque ela é só dela

 Dm
Dá Tchauzim pra ela
  Am            G
Que era sua do verbo já era  
 Dm
Da Tchauzim pra ela
     Am                 G 
Que desce e rebola porque ela é só dela

 Dm                        Am             G
Vai Kevinho, da tchauzim, da tchauzim pra ela
 Dm                          Am             G   Dm
Vai Luquinhas, da tchauzim, da tchauzim pra ela

[Solo] Am  G  Dm  Am  G  

E|----------12--10---------------------12-10----------|
B|-10-12-13--------13-10------10-12-13-------13-10----|
G|-----------------------12------------------------12-|
D|----------------------------------------------------|
A|----------------------------------------------------|
E|----------------------------------------------------|

[Primeira Parte]

 Am                                  Dm
Foi só botar um pezim na vida de solteira 
              Em
Pra ela desandar 
 Am        
Nessa altura da balada 
              Dm                 Em
Vem um tal de ex pedindo pra voltar
 
[Pré-Refrão]

Quem diria 
  Dm                   Em  
Quem tava amarrada descendo soltinha  
  Am
Quem diria
   Dm             Em  
Desapaixonada, desapegadinha 

[Refrão]

 Dm
Dá Tchauzim pra ela
  Am            G
Que era sua do verbo já era  
 Dm
Da Tchauzim pra ela
     Am                 G 
Que desce e rebola porque ela é só dela

 Dm
Dá Tchauzim pra ela
  Am            G
Que era sua do verbo já era  
 Dm
Da Tchauzim pra ela
     Am                 G 
Que desce e rebola porque ela é só dela

 Dm                        Am             G
Vai Kevinho, da tchauzim, da tchauzim pra ela
 Dm                          Am             G   Dm
Vai Luquinhas, da tchauzim, da tchauzim pra ela

 Dm                        Am             G
Vai Kevinho, da tchauzim, da tchauzim pra ela
 Dm                          Am             G   Dm
Vai Luquinhas, da tchauzim, da tchauzim pra ela
reproducciones 1
Acordes para:
    Colaboración y revision:
    • Getúlio Vasconcelos

    0 comentarios

    mostrar más comentarios

    ¿Conseguiste tocar?

    0 tocaron 0 aún no

    ¡Graba un vídeo tocando Ela É Só Dela (part. Lucas Lucco) y envianoslo!

    00:00 / 00:00
    outros vídeos desta música
    repetir qualidade Automático
    Outros vídeos desta música
    00:00 / 00:00
    Automático
    OK