Cifra Club

Elas Gostam

Kevinho

Tablatura: Principal (guitarra)
Tom: G
  
Refrão:

E|-------------------------------------------------------------------|
B|-------------------------------------------------------------------|
G|-------------------------------------------------------------------|
D|-------------------------------------------------------------------| 
A|-------------------------------------------------------------------|
E|-------------------------------------------------------------------|
(3x)

E|-------------------------------------------------------------------|
B|-------------------------------------------------------------------|
G|-------------------------------------------------------------------|
D|-------------------------------------------------------------------|
A|-2-0-2-3-2-0-2-2---------------------------------------------------|
E|-------------------------------------------------------------------|

E|-------------------------------------------------------------------|
B|-------------------------------------------------------------------|
G|-------------------------------------------------------------------|
D|-------------------------------------------------------------------|
A|-------------------------------------------------------------------|
E|-0-0-2-2-2-0-------------------------------------------------------|

               Inicio

E|-------------------------------------------------------------------|
B|-------------------------------------------------------------------|
G|-------------------------------------------------------------------|
D|-------------------------------------------------------------------|
A|-0-0-2-3-2-0-2-2---------------------------------------------------|
E|-----------------0-2-2-2-2-0---------------------------------------|


E|-------------------------------------------------------------------|
B|-------------------------------------------------------------------|
G|-------------------------------------------------------------------|
D|-------------------------------------------------------------------|
A|-0-2-3-2-0-2-2-----------------------------------------------------|
E|---------------0-2-2-2-2-0-----------------------------------------|

E|-------------------------------------------------------------------|
B|-------------------------------------------------------------------|
G|-------------------------------------------------------------------|
D|-------------------------------------------------------------------|
A|-0-2-3-2-0-2-2-----------------------------------------------------|
E|---------------0-2-2-2-2-0-----------------------------------------|

E|-------------------------------------------------------------------|
B|-------------------------------------------------------------------|
G|-------------------------------------------------------------------|
D|-------------------------------------------------------------------|
A|-0-2-3-2-0-2-2-----------------------------------------------------|
E|---------------0-2-2-2-2-0-----------------------------------------|
reproducciones 69
Acordes para:
    Composição: MC Davi / MC Kevinho Colaboración y revision:
    • WILLIAN FONTANELA
    • Giovanna Rosa
    • Vitor Hugo

    0 comentarios

    mostrar más comentarios

    ¿Conseguiste tocar?

    2 tocaron 2 aún no

    ¡Graba un vídeo tocando Elas Gostam y envianoslo!

    00:00 / 00:00
    outros vídeos desta música
    repetir qualidade Automático
    Outros vídeos desta música
    00:00 / 00:00
    Automático
    OK