Cifra Club

O Grave Bater

Kevinho

Tablatura: Principal (guitarra)
Tom: D
[Intro] Bm
        G  A  F#m
        Bm  E  Bm
        G  A  F#m
        Bm  E  Bm

Parte 1 de 3

E|-7----7----10-9-7----7------------------------------|
B|------------------10--------------------------------|
G|----------------------------------------------------|
D|----------------------------------------------------|
A|----------------------------------------------------|
E|----------------------------------------------------|

Parte 2 de 3

E|-7-7-9-10-9-7---------7-----------------------------|
B|--------------10-8------10------7-------------------|
G|------------------------------9---------------------|
D|----------------------------------------------------|
A|----------------------------------------------------|
E|----------------------------------------------------|

Parte 3 de 3

E|-7-7-9-10-9-7-9-10----14-10---9-7-------------------|
B|----------------------------------------------------|
G|----------------------------------------------------|
D|----------------------------------------------------|
A|----------------------------------------------------|
E|----------------------------------------------------|

Parte 2 de 3

E|-7-7-9-10-9-7---------7-----------------------------|
B|--------------10-8------10------7-------------------|
G|------------------------------9---------------------|
D|----------------------------------------------------|
A|----------------------------------------------------|
E|----------------------------------------------------|

Parte 3 de 3

E|-7-7-9-10-9-7-9-10----14-10---9-7-------------------|
B|----------------------------------------------------|
G|----------------------------------------------------|
D|----------------------------------------------------|
A|----------------------------------------------------|
E|----------------------------------------------------|

                   G
É o novo hit do verão
     A        F#m
Pra geral curtir
                      Bm
Ela joga o bumbum pro alto
         E       Bm
Não dá pra resistir
                       G
Nem tenta pagar de santinha
        A       F#m
Que o clima tá bom
                              Bm
Vai desce e sobe, quebra e empina
     E           Bm
Mostrando o seu dom

[Pré-Refrão]


Eu vou de combo, de Jack
             G  A  Bm
Cîroc e Chandon
                      
Olha as novinhas dançando
            D  E  Bm
Em cima do som

E|--10-9-7----7---------------------------------------|
B|---------10-----------------------------------------|
G|----------------------------------------------------|
D|----------------------------------------------------|
A|----------------------------------------------------|
E|----------------------------------------------------|

[Refrão]

                         G   A  F#m
Eu vou mandar o grave bater, êê, êê
                      Bm   E   Bm
E quero ver bumbum mexer, êê, êê
                         G    A   F#m
Eu vou mandar o grave bater, êê, êê
                      Bm   E   Bm
E quero ver bumbum mexer, êê, êê

( G  A  F#m )
( Bm  E  Bm )
( G  A  F#m )
( Bm  E  Bm )

Parte 1 de 2

E|-7-7-9-10-9-7---------7-----------------------------|
B|--------------10-8------10------7-------------------|
G|------------------------------9---------------------|
D|----------------------------------------------------|
A|----------------------------------------------------|
E|----------------------------------------------------|

Parte 2 de 3

E|-7-7-9-10-9-7-9-10----14-10---9-7-------------------|
B|----------------------------------------------------|
G|----------------------------------------------------|
D|----------------------------------------------------|
A|----------------------------------------------------|
E|----------------------------------------------------|

Parte 1 de 3

E|-7-7-9-10-9-7---------7-----------------------------|
B|--------------10-8------10------7-------------------|
G|------------------------------9---------------------|
D|----------------------------------------------------|
A|----------------------------------------------------|
E|----------------------------------------------------|

Parte 2 de 3

E|-7-7-9-10-9-7-9-10----14-10---9-7-------------------|
B|----------------------------------------------------|
G|----------------------------------------------------|
D|----------------------------------------------------|
A|----------------------------------------------------|
E|----------------------------------------------------|

                   G
É o novo hit do verão
     A        F#m
Pra geral curtir
                      Bm
Ela joga o bumbum pro alto
         E       Bm
Não dá pra resistir
                       G
Nem tenta pagar de santinha
        A       F#m
Que o clima tá bom
                              Bm
Vai desce e sobe, quebra e empina
     E           Bm
Mostrando o seu dom

[Pré-Refrão]


Eu vou de combo, de Jack
             G  A  Bm
Cîroc e Chandon
                      
Olha as novinhas dançando
            D  E  Bm
Em cima do som

E|--10-9-7----7---------------------------------------|
B|---------10-----------------------------------------|
G|----------------------------------------------------|
D|----------------------------------------------------|
A|----------------------------------------------------|
E|----------------------------------------------------|

[Refrão]

                         G   A  F#m
Eu vou mandar o grave bater, êê, êê
                      Bm   E   Bm
E quero ver bumbum mexer, êê, êê
                         G    A   F#m
Eu vou mandar o grave bater, êê, êê
                      Bm   E   Bm
E quero ver bumbum mexer, êê, êê

[Final] G  A  F#m
        Bm  E  Bm
        G  A  F#m
        Bm  E  Bm

Parte 1 de 2

E|-7-7-9-10-9-7---------7-----------------------------|
B|--------------10-8------10------7-------------------|
G|------------------------------9---------------------|
D|----------------------------------------------------|
A|----------------------------------------------------|
E|----------------------------------------------------|

Parte 2 de 2

E|-7-7-9-10-9-7-9-10----14-10---9-7-------------------|
B|----------------------------------------------------|
G|----------------------------------------------------|
D|----------------------------------------------------|
A|----------------------------------------------------|
E|----------------------------------------------------|
reproducciones 980
Acordes para:
    Composição: JHEF Colaboración y revision:

    0 comentarios

    mostrar más comentarios

    ¿Conseguiste tocar?

    44 tocaron 6 aún no

    ¡Graba un vídeo tocando O Grave Bater y envianoslo!

    00:00 / 00:00
    outros vídeos desta música
    repetir qualidade Automático
    Outros vídeos desta música
    00:00 / 00:00
    Automático
    OK