Cifra Club

O Grave Bater

Kevinho

Cifrado: Principal (guitarra y guitarra eléctrica)
tono: D
[Intro] Bm
        G  A  F#m
        Bm  Em  Bm
        G  A  F#m
        Bm  Em  Bm

Parte 1 de 3

E|-7----7----10-9-7----7------------------------------|
B|------------------10--------------------------------|
G|----------------------------------------------------|
D|----------------------------------------------------|
A|----------------------------------------------------|
E|----------------------------------------------------|

Parte 2 de 3

E|-7-7-9-10-9-7---------7-----------------------------|
B|--------------10-8------10------7-------------------|
G|------------------------------9---------------------|
D|----------------------------------------------------|
A|----------------------------------------------------|
E|----------------------------------------------------|

Parte 3 de 3

E|-7-7-9-10-9-7-9-10----14-12---9-7-------------------|
B|----------------------------------------------------|
G|----------------------------------------------------|
D|----------------------------------------------------|
A|----------------------------------------------------|
E|----------------------------------------------------|

Parte 2 de 3

E|-7-7-9-10-9-7---------7-----------------------------|
B|--------------10-8------10------7-------------------|
G|------------------------------9---------------------|
D|----------------------------------------------------|
A|----------------------------------------------------|
E|----------------------------------------------------|

Parte 3 de 3

E|-7-7-9-10-9-7-9-10----14-12---9-7-------------------|
B|----------------------------------------------------|
G|----------------------------------------------------|
D|----------------------------------------------------|
A|----------------------------------------------------|
E|----------------------------------------------------|

                   G
É o novo hit do verão
     A        F#m
Pra geral curtir
                      Bm
Ela joga o bumbum pro alto
         Em       Bm
Não dá pra resistir
                       G
Nem tenta pagar de santinha
        A       F#m
Que o clima tá bom
                              Bm
Vai desce e sobe, quebra e empina
     Em           Bm
Mostrando o seu dom

[Pré-Refrão]


Eu vou de combo, de Jack
             G  A  Bm
Cîroc e Chandon
                      
Olha as novinhas dançando
            D  E  Bm
Em cima do som

E|--10-9-7----7---------------------------------------|
B|---------10-----------------------------------------|
G|----------------------------------------------------|
D|----------------------------------------------------|
A|----------------------------------------------------|
E|----------------------------------------------------|

[Refrão]

                         G   A  F#m
Eu vou mandar o grave bater, êê, êê
                      Bm   Em   Bm
E quero ver bumbum mexer, êê, êê
                         G    A   F#m
Eu vou mandar o grave bater, êê, êê
                      Bm   Em   Bm
E quero ver bumbum mexer, êê, êê

( G  A  F#m )
( Bm  Em  Bm )
( G  A  F#m )
( Bm  Em  Bm )

Parte 1 de 2

E|-7-7-9-10-9-7---------7-----------------------------|
B|--------------10-8------10------7-------------------|
G|------------------------------9---------------------|
D|----------------------------------------------------|
A|----------------------------------------------------|
E|----------------------------------------------------|

Parte 2 de 3

E|-7-7-9-10-9-7-9-10----14-12---9-7-------------------|
B|----------------------------------------------------|
G|----------------------------------------------------|
D|----------------------------------------------------|
A|----------------------------------------------------|
E|----------------------------------------------------|

Parte 1 de 3

E|-7-7-9-10-9-7---------7-----------------------------|
B|--------------10-8------10------7-------------------|
G|------------------------------9---------------------|
D|----------------------------------------------------|
A|----------------------------------------------------|
E|----------------------------------------------------|

Parte 2 de 3

E|-7-7-9-10-9-7-9-10----14-12---9-7-------------------|
B|----------------------------------------------------|
G|----------------------------------------------------|
D|----------------------------------------------------|
A|----------------------------------------------------|
E|----------------------------------------------------|

                   G
É o novo hit do verão
     A        F#m
Pra geral curtir
                      Bm
Ela joga o bumbum pro alto
         Em       Bm
Não dá pra resistir
                       G
Nem tenta pagar de santinha
        A       F#m
Que o clima tá bom
                              Bm
Vai desce e sobe, quebra e empina
     Em           Bm
Mostrando o seu dom

[Pré-Refrão]


Eu vou de combo, de Jack
             G  A  Bm
Cîroc e Chandon
                      
Olha as novinhas dançando
            D  Em  Bm
Em cima do som

E|--10-9-7----7---------------------------------------|
B|---------10-----------------------------------------|
G|----------------------------------------------------|
D|----------------------------------------------------|
A|----------------------------------------------------|
E|----------------------------------------------------|

[Refrão]

                         G   A  F#m
Eu vou mandar o grave bater, êê, êê
                      Bm   Em   Bm
E quero ver bumbum mexer, êê, êê
                         G    A   F#m
Eu vou mandar o grave bater, êê, êê
                      Bm   Em   Bm
E quero ver bumbum mexer, êê, êê

[Final] G  A  F#m
        Bm  Em  Bm
        G  A  F#m
        Bm  Em  Bm

Parte 1 de 2

E|-7-7-9-10-9-7---------7-----------------------------|
B|--------------10-8------10------7-------------------|
G|------------------------------9---------------------|
D|----------------------------------------------------|
A|----------------------------------------------------|
E|----------------------------------------------------|

Parte 2 de 2

E|-7-7-9-10-9-7-9-10----14-12---9-7-------------------|
B|----------------------------------------------------|
G|----------------------------------------------------|
D|----------------------------------------------------|
A|----------------------------------------------------|
E|----------------------------------------------------|
Composición de JHEF
1.779 vistas
    • ½ Tono
    • A
    • Bb
    • B
    • C
    • Db
    • D
    • Eb
    • E
    • F
    • F#
    • G
    • Ab
  • Agregar a la lista

    0 comentarios

    Ver todos los comentarios

    ¿Lograste tocar?

    46 Tocaron 7 Aún no

    ¡Graba un video tocando O Grave Bater y envíanoslo!

    00:00 / 00:00
    Outros vídeos desta música
    Repetir Calidad Automático
    Outros vídeos desta música
    00:00 / 00:00
    Automático
    OK