Cifra Club

Papum

Kevinho

Tablatura: Principal (guitarra)
Tom: G
[Intro]  G  C  D
         G  C  D

E|-10-----------------------------------|
B|-----10-12~--12-12-13-12-12-10-10-8~--|
G|--------------------------------------| (2x)
D|--------------------------------------|
A|--------------------------------------|
E|--------------------------------------|

 G       C
Não para
     D        G
Dá uma reboladinha
       C
Repara
                    G
Olha só pra essa menina
       C
Prepara
     D           G
E saia do seu comum
          C             D
Hoje ela marca qualquer um

G
  Não para
     D        G
Dá uma reboladinha
Repara
      D             G
Olha só pra essa menina
Prepara
     D           G
E saia do seu comum

                        G
E quando eu mandar é papum
          C             D      G
Esse movimento que ela faz, papum
            C               D      G
Quando ela joga e vai pra trás, papum
          C             D
Hoje ela marca qualquer um
G               C     D  G
E quando eu mandar é pa-pum
          C             D      G
Esse movimento que ela faz, papum
            C               D      G
Quando ela joga e vai pra trás, papum
          C             D
Hoje ela marca qualquer um
         G                C       D
E quando eu mandar, você já sabe né fio!

( G  C  D )
( G  C  D )
( G  C  D )
( G  D )

E|-10----------------------------------------|
B|----12~-----------------12-10-8------------|
G|---------9-9-12-9-12-12--------------------|
D|-------------------------------------------|
A|-------------------------------------------|
E|-------------------------------------------|

E|-10----------------------------------------|
B|----12~--12-13-12-13-12-13-12-10-8---------|
G|-------------------------------------------|
D|-------------------------------------------|
A|-------------------------------------------|
E|-------------------------------------------|

E|-10----------------------------------------|
B|----12~--12-13-12-13-12-13-12-10 10/8------|
G|-------------------------------------------|
D|-------------------------------------------|
A|-------------------------------------------|
E|-------------------------------------------|

E|------------------10-----------------------|
B|---------12-10-----------------------------|
G|-9-11-12-------12--------------------------|
D|-------------------------------------------|
A|-------------------------------------------|
E|-------------------------------------------|

 G       C
Não para
     D        G
Dá uma reboladinha
       C
Repara
                    G
Olha só pra essa menina
       C
Prepara
     D           G
E saia do seu comum
          C             D
Hoje ela marca qualquer um

G
  Não para
     D        G
Dá uma reboladinha
Repara
      D             G
Olha só pra essa menina
Prepara
     D           G
E saia do seu comum

                        G
E quando eu mandar é papum
          C             D      G
Esse movimento que ela faz, papum
            C               D      G
Quando ela joga e vai pra trás, papum
          C             D
Hoje ela marca qualquer um
G               C     D  G
E quando eu mandar é pa-pum
          C             D      G
Esse movimento que ela faz, papum
            C               D      G
Quando ela joga e vai pra trás, papum
          C             D
Hoje ela marca qualquer um
         G                C       D
E quando eu mandar, você já sabe né fio!

( G  C  D )
( G  C  D )
( G  C  D )
( G  D )

E|-10----------------------------------------|
B|----12~-----------------12-10-8------------|
G|---------9-9-12-9-12-12--------------------|
D|-------------------------------------------|
A|-------------------------------------------|
E|-------------------------------------------|

E|-10----------------------------------------|
B|----12~--12-13-12-13-12-13-12-10-8---------|
G|-------------------------------------------|
D|-------------------------------------------|
A|-------------------------------------------|
E|-------------------------------------------|

E|-10----------------------------------------|
B|----12~--12-13-12-13-12-13-12-10 10/8------|
G|-------------------------------------------|
D|-------------------------------------------|
A|-------------------------------------------|
E|-------------------------------------------|

E|------------------10-----------------------|
B|---------12-10-----------------------------|
G|-9-11-12-------12--------------------------|
D|-------------------------------------------|
A|-------------------------------------------|
E|-------------------------------------------|

              D       G
Quando for jogar é papum
reproducciones 54
Acordes para:
    Composição: Lukka / MC Kevinho Colaboración y revision:
    • Lucas Kappaun
    • Everton Russi

    0 comentarios

    mostrar más comentarios

    ¿Conseguiste tocar?

    2 tocaron 2 aún no

    ¡Graba un vídeo tocando Papum y envianoslo!

    00:00 / 00:00
    outros vídeos desta música
    repetir qualidade Automático
    Outros vídeos desta música
    00:00 / 00:00
    Automático
    OK