Cifra Club

Turutum Tum Tum

Kevinho

Tablatura: Principal (guitarra)
Tom: C#
Solo intro 

E|-------------9-11-14-14-11-9-11-9------------------------------|
B|-------------------------------9-9-9-7-7-9---------------------|
G|---------------------------------------------------------------|
D|---------------------------------------------------------------|
A|---------------------------------------------------------------|
E|---------------------------------------------------------------|
                              (2x)

E|-------------9-11-14-14-11-9-11-9------------------------------|
B|------------------------------9-9-9-7-7-7-7-7-7-7-9-9-9-9-7-7-7|
G|---------------------------------------------------------------|
D|---------------------------------------------------------------|
A|---------------------------------------------------------------|
E|---------------------------------------------------------------|
 F#                   G#
   Essa aqui é o lançamento
                  F#   G# A#
 Kevinho que fez pra tu
                G#
 Pra você se acabar
            F#
 E mexer o bumbum
              G#
 Pra você se acabar mulher
           F#
 Mexer o bumbum
              G#
 Pra você se acabar
           F#  G# A#
 E mexer o bumbuuuuuuum
      G#                    F#
 Turutututum vai jogando o bumbum (3X)
F#     G#          F#
 Vai jogando vai sarrando
       G#        F#
 Vai mexendo o bumbum
reproducciones 262
Acordes para:
    Colaboración y revision:
    • Gabriel Raul
    • Júlia Borges

    0 comentarios

    mostrar más comentarios

    ¿Conseguiste tocar?

    3 tocaron 1 aún no

    ¡Graba un vídeo tocando Turutum Tum Tum y envianoslo!

    00:00 / 00:00
    outros vídeos desta música
    repetir qualidade Automático
    Outros vídeos desta música
    00:00 / 00:00
    Automático
    OK