Cifra Club

Azul Piscina

MC Livinho

Cifrado: Principal (guitarra y guitarra eléctrica)
tono: A
[Intro]  D   A

E|----------12-10-9-7-9~---|
B|-10-12-14----------------|
G|-------------------------|
D|-------------------------|
A|-------------------------|
E|-------------------------|

E|-14-12-10---14-12-10--14-12-10-9~---|
B|------------------------------------|
G|------------------------------------|
D|------------------------------------|
A|------------------------------------|
E|------------------------------------|

       D
Se amanhã o sol nascer
                   A
Eu vou ter que tá lá, ter que tá lá

 D
Mandar o patrão ir se foder
            A
Direto pro RH, pro RH

 D                          A
Só cachaça, tequila e esse som
            D
É várias perdidas que nós sempre encontra
            A
E se perde junto o dom
D
Olho azul piscina, a preta domina
             A
Todas de biquíni é bom

D
Sei lá, posso me arrepender
             A
E me equivocar, equivocar

D
Melhor meter um atestado
                    A
Do que eu vou precisar

 D                      A
Só cachaça, tequila e esse som
               D
É várias perdidas que nós sempre encontra
              A
E se perde junto o dom
              D
Olho azul piscina, a preta domina
             A
Todas de biquíni é bom

[Solo]  D   A

E|----------12-10-9-7-9~---|
B|-10-12-14----------------|
G|-------------------------|
D|-------------------------|
A|-------------------------|
E|-------------------------|

E|-14-12-10---14-12-10--14-12-10-9~---|
B|------------------------------------|
G|------------------------------------|
D|------------------------------------|
A|------------------------------------|
E|------------------------------------|

       D
Se amanhã o sol nascer
                   A
Eu vou ter que tá lá, ter que tá lá

 D
Mandar o patrão ir se foder
            A
Direto pro RH, pro RH

D                  A
Só cachaça, tequila e esse som
            D
É várias perdidas que nós sempre encontra
            A
E se perde junto o dom
D                                  A
Olho azul piscina, a preta domina
    D                    A
Todas de biquíni é bom

D
Sei lá, posso me arrepender
             A
E me equivocar, equivocar

D
Melhor meter um atestado
                    A
Do que eu vou precisar

 D                      A
Só cachaça, tequila e esse som
               D
É várias perdidas que nós sempre encontra
              A
E se perde junto o dom
           D
Olho azul piscina, a preta domina
            A
Todas de biquíni é bom
Composición de MC Livinho
Colaboración y revisión:
1.017 vistas
    • ½ Tono
    • A
    • Bb
    • B
    • C
    • Db
    • D
    • Eb
    • E
    • F
    • F#
    • G
    • Ab
  • Agregar a la lista

    0 comentarios

    Ver todos los comentarios

    ¿Lograste tocar?

    26 Tocaron 6 Aún no

    ¡Graba un video tocando Azul Piscina y envíanoslo!

    00:00 / 00:00
    Otros videos de esta canción
    Repetir Calidad Automático
    Otros videos de esta canción
    00:00 / 00:00
    Automático
    OK