Cifra Club

Conto do Pescador

MC Menor da VG

Cifrado: Principal (guitarra y guitarra eléctrica)
tono: A
[Intro]

E|-----12-12-12-11------------------------------|
B|--9---------------12-12---12-10-10-12-10-9-9--|
G|----------------------------------------------| (2x)
D|----------------------------------------------|
A|----------------------------------------------|
E|----------------------------------------------|

E|----------------------------15-14-15--14-12--------|
B|--9------9--10-9----12--9-------------------15-14--|
G|-----11----------11--------------------------------| (2x)
D|---------------------------------------------------|
A|---------------------------------------------------|
E|---------------------------------------------------|

[Refrão]

               C#m                     F#m           
Eu nunca vi ninguém dançando como essa mina 
             C#m                     F#m
Eu nunca vi nenhuma dançar como essa mina 
                        C#m
De frente ela me deixa louco 
                       F#m
De costa ela vem me fascina 
                       C#m
De frente ela me deixa louco 
                   F#m
De costa ela me fascina

                                   C#m
Tava eu e o Jorginho apavorando na festa 
                    F#m          
Quando apareceu a gostosa
                    C#m
E se é gostosa me interessa 
                F#m                C#m
De repente percebi, já estava encantado 
                  F#m                  C#m               
Com a gata hipnotizando e o baile hipnotizado
 
                  F#m         Bm            C#m
Eu falei que tava bom, mas ainda vai melhorar 
                    F#m         Bm            C#m
É fato que eu quero ela, esse fato eu vou consumar 
              F#m       Bm     C#m
10 Minuto de ideia, ela já abraçou 
                 F#m           Bm          C#m
E foi aí que a sereia caiu no conto do pescador
Composición de Mc Menor da Vg
Colaboración y revisión:
  • Felipe Cassel
  • Ana Ávila
227 vistas
    • ½ Tono
    • A
    • Bb
    • B
    • C
    • Db
    • D
    • Eb
    • E
    • F
    • F#
    • G
    • Ab
  • Agregar a la lista

    0 comentarios

    Ver todos los comentarios

    ¿Lograste tocar?

    3 Tocaron 4 Aún no

    ¡Graba un video tocando Conto do Pescador y envíanoslo!

    00:00 / 00:00
    Outros vídeos desta música
    Repetir Calidad Automático
    Outros vídeos desta música
    00:00 / 00:00
    Automático
    OK