Cifra Club

Potencia do Popozão

MC Menor da VG

Cifrado: Principal (guitarra y guitarra eléctrica)
tono: D
Parte 1

E|--5--8---5--8--5--8--8/10~~---8~~--------------------|
B|-----------------------------------------------------|
G|-----------------------------------------------------|
D|-----------------------------------------------------|
A|-----------------------------------------------------|
E|-----------------------------------------------------|

Parte 2

E|--5--8--5--8--5--8--8/12----10--8--8/10--------------|
B|-----------------------------------------------------|
G|-----------------------------------------------------|
D|-----------------------------------------------------|
A|-----------------------------------------------------|
E|-----------------------------------------------------|

Parte 3

E|--5--8--5--8--5--8--10--7--------------------7-7-7-5-|
B|-------------------------------8-8-8-5-5-5-----------|
G|-----------------------------------------------------|
D|-----------------------------------------------------|
A|-----------------------------------------------------|
E|-----------------------------------------------------|

Again until the end

E|--5--8--5--8--5--8--10--7--------------------7-7-7-5-|
B|-------------------------------8-8-8-5-5-5-----------|
G|-----------------------------------------------------|
D|-----------------------------------------------------|
A|-----------------------------------------------------|
E|-----------------------------------------------------|

E|--5--8--5--8--5--8--10--7--------------------7-7-7-5-|
B|--------------------------------8-8-8-5-5-5----------|
G|-----------------------------------------------------|
D|-----------------------------------------------------|
A|-----------------------------------------------------|
E|-----------------------------------------------------|

E|--5--8--5--8--5--8--10--7--------------------7-7-7-5-|
B|-------------------------------8-8-8-5-5-5-----------|
G|-----------------------------------------------------|
D|-----------------------------------------------------|
A|-----------------------------------------------------|
E|-----------------------------------------------------|
Compositor não encontrado.
Colaboración y revisión:
  • Jefforró Original
4 vistas
    • ½ Tono
    • A
    • Bb
    • B
    • C
    • Db
    • D
    • Eb
    • E
    • F
    • F#
    • G
    • Ab
  • Agregar a la lista

    0 comentarios

    Ver todos los comentarios

    ¿Lograste tocar?

    0 Tocaron 0 Aún no

    ¡Graba un video tocando Potencia do Popozão y envíanoslo!

    00:00 / 00:00
    Outros vídeos desta música
    Repetir Calidad Automático
    Outros vídeos desta música
    00:00 / 00:00
    Automático
    OK