Cifra Club

Só Quer Vrau

MC MM

Cifrado: Principal (guitarra y guitarra eléctrica)
tono: F
[Intro] Dm

Essas malandra assanhadinha
Que só quer vrau, só quer vrau
Só quer vrau, vrau, vrau
           Gm            F
Vem pra favela ficar doidinha
        E7             Dm
Então, vem sentando aqui
(Senta aqui, senta aqui, vai)

Essas malandra (vai, vai) assanhadinha (vai, vai)
Que só quer vrau, só quer vrau
Só quer vrau, vrau, vrau
           Gm                       F
Vem pra favela (vai, vai) ficar doidinha (vai, vai)
        E7             Dm
Então, vem sentando aqui

Vai nov-, vai nov, vai nov-, vai nov-
Vai nov-, vai novinha da favela
O ritmo é esse aqui
Senta aqui, senta aqui, senta aqui
Senta aqui, senta aqui, senta aqui, senta (vai, vai, vai)

Senta aqui, senta aqui, senta aqui
Senta aqui, senta aqui, senta aqui, senta (vai, vai, vai)
Senta aqui, senta aqui, senta aqui
Senta aqui, senta aqui, senta aqui, senta (vai, vai, vai)
Vai, vai
         Dm
Essas malandra (vai, vai) assanhadinha (vai, vai)
Que só quer vrau, só quer vrau
Só quer vrau, vrau, vrau
           Gm                       F
Vem pra favela (vai, vai) ficar doidinha (vai, vai)
        E7             Dm
Então, vem sentando aqui

[Solo] Dm  Gm  F  E7

E|-------------------------------------------5-5-5--|
B|-3-3-5-6-3--3-3-5-6-3--3-3-5-6--3-5-6--3-5--------|
G|--------------------------------------------------|
D|--------------------------------------------------|
A|--------------------------------------------------|
E|--------------------------------------------------|

E|-3-5-6-3--6-5-3-5----------5---5----|
B|------------------6--6-6-5---5---3--|
G|------------------------------------|
D|------------------------------------|
A|------------------------------------|
E|------------------------------------|

         Dm
Essas malandra assanhadinha
Que só quer vrau, só quer vrau
Só quer vrau, vrau, vrau
           Gm            F
Vem pra favela ficar doidinha
        E7             Dm
Então, vem sentando aqui
(Senta aqui, senta aqui, vai)

Essas malandra assanhadinha
Que só quer vrau, só quer vrau
Só quer vrau, vrau, vrau
           Gm            F
Vem pra favela ficar doidinha
        E7             Dm
Então, vem sentando aqui

Vai nov-, vai nov, vai nov-, vai nov-
Vai nov-, vai novinha da favela
O ritmo é esse aqui
Senta aqui, senta aqui, senta aqui
Senta aqui, senta aqui, senta aqui, senta (vai, vai, vai)

Senta aqui, senta aqui, senta aqui
Senta aqui, senta aqui, senta aqui, senta (vai, vai, vai)
Senta aqui, senta aqui, senta aqui
Senta aqui, senta aqui, senta aqui, senta (vai, vai, vai)
Vai, vai
         Dm
Essas malandra assanhadinha
Que só quer vrau, só quer vrau
Só quer vrau, vrau, vrau
           Gm            F
Vem pra favela ficar doidinha
        E7             Dm
Então, vem sentando aqui

[Solo] Dm  Gm  F  E7  Dm

E|-------------------------------------------5-5-5--|
B|-3-3-5-6-3--3-3-5-6-3--3-3-5-6--3-5-6--3-5--------|
G|--------------------------------------------------|
D|--------------------------------------------------|
A|--------------------------------------------------|
E|--------------------------------------------------|

E|-3-5-6-3--6-5-3-5----------5---5----|
B|------------------6--6-6-5---5---3--|
G|------------------------------------|
D|------------------------------------|
A|------------------------------------|
E|------------------------------------|
Composición de DJ RD / MC MM
Colaboración y revisión:
510 vistas
    • ½ Tono
    • A
    • Bb
    • B
    • C
    • Db
    • D
    • Eb
    • E
    • F
    • F#
    • G
    • Ab
  • Agregar a la lista

    0 comentarios

    Ver todos los comentarios

    ¿Lograste tocar?

    22 Tocaron 11 Aún no

    ¡Graba un video tocando Só Quer Vrau y envíanoslo!

    00:00 / 00:00
    Outros vídeos desta música
    Repetir Calidad Automático
    Outros vídeos desta música
    00:00 / 00:00
    Automático
    OK