Enviar cifraEntrar

Valeu Amigo

Pikeno e Menor

Acordes: Principal
reproducciones 856
Tono: B
Intro: B  F#  G#m  E   reggae


        B                            F#/C#                               G#m
E|-----------7---------------------------------6------------6---7-----4----------4--------
B|------7-----------------7-------7-----7------------7------7---7-----4-----4-------------
G|----8---8-----8----7h8----7h8------6-----6------6---------6---6-----4---4---4------4----
D|----------------------------------------------------------------------------------------
A|----------------------------------------------------------------------------------------
E|-7--------------------------------------------------------------------------------------


                            E
E|----------------------------------0----------------------------
B|-----------------------------0--------------------4-----4/7----
G|-6b---4-----4--------------1---1-----1-------6b------6---------
D|---------6-----6-----------------------------------------------
A|---------------------------------------------------------------
E|-----------------------0---------------------------------------


     B
Eu ouvi palavras ditas com o carinho
     F#
De que na vida ninguém é feliz sozinho
G#m                       E
E  você é o alguém que sempre me fez bem..
     B
Me protegeu e me tirou de todo perigo
     F#
E quando eu precisei você chorou comigo
G#m                       E
Valeu por você existir é tão bom te ter aqui..
     B                    F#
Eu rezo e peço pra Deus cuidar
                G#m
A sua vida abençoar 
                      E
Vou correr por você até o fim..

Base do solo: B F# G#m E

2° Solo:

E|----------------------------------------------------------------------------------------------
B|-------7------------7------------7------------7------------7---------------------------------
G|-6h8-----8---6h8------8---6h8------8---6h8------8---6h8------8---------4---6h8r6---4h6---4---
D|------------------------------------------------------------------4h6------------------------
A|---------------------------------------------------------------------------------------------
E|---------------------------------------------------------------------------------------------


E|------------------------------------------
B|-------9--7-------------------------7-----
G|-------------8---8r6--4--6p4--6/8---------
D|--7/9-------------------------------------
A|------------------------------------------
E|------------------------------------------


B                            F#
 Me quis tirar do mal eu percebi
                           G#m
Disse verdades que eu mereci
                      
Então pra sempre amigos, sim
   E
Se Deus quiser, ehhh
B                                F#
 Vou ter você guardado no meu coração
                           G#m
Até nos seus conselhos de irmão
                                E D#m C#m F#
E é pra você que eu dedico essa canção......
    B                            F#
Eu rezo e peço pra Deus cuidar, cuidar
                     G#m
A sua vida abençoar, abençoar
                      E
Vou correr por você até o fim..
   B                         F#
Assim eu sei que pra você também
                     G#m
Sou alguém que te faz tão bem
                         E
Mais que amigo, um irmão meu, valeu!
   B                             F#
Eu rezo e peço pra Deus cuidar, cuidar
                     G#m
A sua vida abençoar, abençoar
                      E
Vou correr por você até o fim..
   B                         F#
Assim eu sei que pra você também
                     G#m
Sou alguém que te faz tão bem
                         E
Mais que amigo, um irmão meu, valeu...

Continua na base: B9 F# G#m E (2x)

"Quando todos se forem eu vou estar lá com você, Amigos até depois do fim. Valeu Amigo!"
(B)
  • 1
  • 2
  • 3
  • 4
  • 5
  • 6
  • 7
  • 8
  • 9
  • 10
  • 11
  • 12

    0 comentarios

      mostrar mas comentarios

      ¿Conseguiste tocar?

      201tocaron8aún no

      ¡Grave un vídeo tocando Valeu Amigo y envie para nosotros!

      00:00 / 00:00
      outros vídeos desta música
      repetirqualidadeautomática
      • automática
      Outro vídeos desta música
        00:00 / 00:00
        automática
        • automática
        cerrarplay/pause subir/bajar velocidad
          acordes
          cerrar
          OK
          Feedback