Enviar cifraEntrar

Valeu Amigo

Pikeno e Menor

Acordes: Principal
reproducciones 949
Tono: B
Intro: B  F#  G#m  E

Parte 1 de 2


   B                       F#
E|---------7-----------------------6------6-7---------------
B|-----7------------7------7---7-------7--7-7---------------
G|---8---8---8--7h8---7h8----6---6---6----6-6---------------
D|----------------------------------------------------------
A|----------------------------------------------------------
E|-7--------------------------------------------------------


Parte 2 de 2


   G#m                          E
E|-4-------4----------------------------0-------------------
B|-4---4----------------------------0--------------4---4/7--
G|-4-4---4----4--6b8r6-4---4------1---1---1--6b8r6---6------
D|-----------------------6---6------------------------------
A|----------------------------------------------------------
E|------------------------------0---------------------------


Primeira Parte:

      B
Eu ouvi palavras ditas com o carinho
    F#
De que na vida ninguém é feliz sozinho
G#m                        E
E você é o alguém que sempre me fez bem
         B
Me protegeu e me tirou de todo perigo
   F#
E quando eu precisei você chorou comigo
   G#m
Valeu por você existir
       E
É tão bom te ter aqui

Refrão:

    B                       F#
Eu rezo e peço pra Deus cuidar
                 G#m
A sua vida abençoar 
                      E
Vou correr por você até o fim

Base Solo: B  F#  G#m  E

Solo:

Parte 1 de 2


E|---------------------------------------------------------------------
B|-----7--------7--------7--------7--------7---------------------------
G|-6h8---8--6h8---8--6h8---8--6h8---8--6h8---8-------4--6b8r6--4h6--4--
D|-----------------------------------------------4h6-------------------
A|---------------------------------------------------------------------
E|---------------------------------------------------------------------


Parte 2 de 2


E|--------------------------------------------------------------------
B|------9-7--------------------7--------------------------------------
G|----------8---8r6-4-6p4--6/8----------------------------------------
D|-7/9----------------------------------------------------------------
A|--------------------------------------------------------------------
E|--------------------------------------------------------------------


Segunda Parte:

B                                F#
  Me quis tirar do mal, eu percebi
                           G#m
Disse verdades que eu mereci
                      
Então pra sempre amigos, sim
    E
Se Deus quiser, eeeh
B                                   F#
  Vou ter você guardado no meu coração
                             G#m
Até nos seus conselhos de irmão

E é pra você 
                       E  D#m  C#m
Que eu dedico essa cançã___________o

Refrão 2x:

    B                       F#
Eu rezo e peço pra Deus cuidar
                 G#m
A sua vida abençoar 
                      E
Vou correr por você até o fim
   B                          F#
Assim eu sei que pra você também
                       G#m
Sou alguém que te faz tão bem
                          E
Mais que amigo, um irmão meu, valeu

Final:

B  F#
  Quando todos se forem
                       G#m
Eu vou estar lá com você

Amigos até depois do fim
E
  Valeu amigo

( B  F#  G#m  E )
  • 1
  • 2
  • 3
  • 4
  • 5
  • 6
  • 7
  • 8
  • 9
  • 10
  • 11
  • 12

    0 comentarios

      mostrar mas comentarios

      ¿Conseguiste tocar?

      207tocaron9aún no

      ¡Grave un vídeo tocando Valeu Amigo y envie para nosotros!

      00:00 / 00:00
      outros vídeos desta música
      repetirqualidadeautomática
      • automática
      Outro vídeos desta música
        00:00 / 00:00
        automática
        • automática
        1 versión de Guitar Proformatodownloadscontribución
        cerrarplay/pause subir/bajar velocidad
          Acordes para:guitarra
          acordes
          cerrar
          OK