Cifra Club

Aint No Stoppin Us Now

Mcfadden And Whitehead

Tab de bajo: Principal
Mcfadden & Whitehead
Ain't No Stoppin' Us Now
Tuning: Standard
Transcribed by Soch H.

This was one of their most famous R&B songs ever recorded in the 70's. The
song is very well known to people. You can buy their CD on *
Intro:
|-----------------------------------|
|-6-6--4--4-3-3---------------------|
|----------------6----------------4-|
|------------------6--4--4--4--4----|(x2)

|-----------------------------------|
|-6-6--4--4-3-3---------------------|
|----------------6------------------|
|------------------6--4--4--4--4----|

|-----------------------------------|
|-----------------------------------|
|-8--8--8--8----8--8--8--8----------|
|------------6----------------------|

Main Bass Riff:
|------------------------------------------------------|
|------6---6--8s10--6----------------------------------|
|--------8------------8--6--6-6--7--8---6-8-6----------|
|-6-6-----------------------------------------8-7------|

|------------------------------------------------------|
|------6---6--8s10--6----------------------------------|
|--------8------------8--6--6-6--7--8------------------|
|-6-6----------------------------------8\--------------|

|------------------------------------------------------|
|------6---6--8s10--6----------------------------------|
|--------8------------8--6--6-6--7--8---6-8-6----------|
|-6-6-----------------------------------------8-7------|

|------------------------------------------------------|
|------6---6--8s10--6----------------------------------|
|--------8------------8--6--6-6--7--8------------------|
|-6-6----------------------------------8\--------------|

Chorus:
|------------------------------------------------------|
|------6---6--8s10--6----------------------------------|
|--------8------------8--6--6-6--7--8---6-8-6----------|
|-6-6-----------------------------------------8-7------| (x3)

|------------------------------------------------------|
|------6---6--8s10--6----------------------------------|
|--------8------------8--6--6-6--7--8------------------|
|-6-6----------------------------------8\--------------|

Verse:
|------------------------------------------------------|
|------6---6--8s10--6----------------------------------|
|--------8------------8--6--6-6--7--8---6-8-6----------|
|-6-6-----------------------------------------8-7------|

|------------------------------------------------------|
|------6---6--8s10--6-----------------6----------------|
|--------8------------8--6--6-6--7--8------------------|
|-6-6-----------------------------------8-4--6---------|

|------------------------------------------------------|
|------6---6--8s10--6----------------------------------|
|--------8------------8--6--6-6--7--8------------------|
|-6-6----------------------------------8\--------------|

|------------------------------------------------------|
|------6---6--8s10--6----------------------------------|
|--------8------------8--6--6-6--7--8---6-8-6----------|
|-6-6-----------------------------------------8-7------|

|------------------------------------------------------|
|------6---6--8s10--6-----------------6----------------|
|--------8------------8--6--6-6--7--8------------------|
|-6-6-----------------------------------8-4--6---------|

|------------------------------------------------------|
|------6---6--8s10--6---------------------6------------|
|--------8------------8--6--6-6--7--8---8--------------|
|-6-6---------------------------------6----------------|

|------------------------------------------------------|
|------6---6--8s10--6----------------------------------|
|--------8------------8--6--6-6--7--8--8-8-------------|
|-6-6---------------------------------------8-7--------|

|------------------------------------------------------|
|------6---6--8s10--6----------------------------------|
|--------8------------8--6--6-6--7--8------------------|
|-6-6--------------------------------------------------|

Bridge: (1:25)
|------------------------------------------------------|
|-----------6--4--4-3-3---3----------------------------|
|---------6-------------6------------------------------|
|-4-4-4-4----------------------------------------------|(x3)

|-----------------------------------|
|-----------------------------------|
|-8--8--8--8----8--8--8--8----------|
|------------6----------------------|

Play main bass riff

Legend:
s - slide
00:00 / 00:00
Otros videos de esta canción
Repetir
Otros videos de esta canción
Composición de Jerry Cohen / McFadden / Whitehead
16 vistas

0 comentarios

Ver todos los comentarios

¿Lograste tocar?

0 Tocaron 0 Aún no

¡Graba un video tocando Aint No Stoppin Us Now y envíanoslo!

00:00 / 00:00
OK