Cifra Club

Sin tí

Mdo

Cifrado: Principal (guitarra y guitarra eléctrica)
tono: G
INTRO
    G   M            D                   E  m
E|-------------------10--10--12--10---------------------------------|
B|----7--9--10--8---------------------12--8--------------------|
G|-------------------------------------------------------|

                    B  m                 C  M
E|-------------------10--10--12--10---------------------------------|
B|----7--9--10--8---------------------12--8--------------------|
G|-------------------------------------------------------|-

                   GM   / A  m
E|--------------------------------------10--------------------|
B|----9--10--9--11--9----7--9--10--8-------------------------------|
G|--------------------------------------------------------|

      D  M
E|---------------------------------------|
B|----0--5--8--7--5--3--1---------------|
G|--------------------------------------------------------|

G         D             Em 
En mi alma hay , un lugar amor
            Bm            C  
Cálido y sensual como el mar azul
            G              Am 
Esperándo estoy , a que vengas ´tu
        D  
Para mostrártelo...
SELM       D               Em 
En mi habitación , cuado tú no estas
         Bm             C  
El cielo se vá , lenta,ente y yo
             G               Am 
Tengo que luchar , con la adversidad
       D  
Para sobreviviiiiiiir...

CORO 1
Em            Bm 
Dime que hice maaaal ,
    C            G      D  
Para merecer tu desprecio cariño
Em         Bm 
Tanta soledaaaad ,
C                    G   
Me tiene al borde de un profundo abismo
Am  D       Em 
Me quiero morir...


GM/  DM/M Im/Bm 
Sin ti amooooor
            C              G   
Todo es un desastre , me siento vacío
                Am                D  
La vida no es vida ya nada es lo mismo
GM/  DM/M Im/Bm 
Sin tiiiiiii......
         C         G   
Salir a la calle no tiene sentido
            Am                  D  
Hay tantos recuerdos que le dan muy duro a mi corazón


    G   M            D                   E  m
E|-------------------10--10--12--10---------------------------------|
B|----7--9--10--8---------------------12--8--------------------|
G|-------------------------------------------------------|

                    B  m                 C  M
E|-------------------10--10--12--10---------------------------------|
B|----7--9--10--8---------------------12--8--------------------|
G|-------------------------------------------------------|-

                   GM   / A  m
E|--------------------------------------10--------------------|
B|----9--10--9--11--9----7--9--10--8-------------------------------|
G|--------------------------------------------------------|

      D  M
E|---------------------------------------|
B|----0--5--8--7--5--3--1---------------|
G|--------------------------------------------------------|

G        D               Em 
En el corazón , yo conservo aún
           Bm            C  
El poema aquel , que me diste tú
          G          Am 
Tu primera vez , esa timidez
            D        Em 
Mientras te amaba y yoooooo

CORO

INTERMEDIO : G   M-D  -Em -Bm -C  -G   -Am -D  -A  

AM/M IM/F#m/D O#m
amooooor
             D               A  
Todo es un desastre , me siento vacío
              Bm             E  
La vida no es vida ya nada es lo mismo

AM/M IM/F#m/D O#m
Sin Ti amoooor.....
         D            A  
Salir a la calle no tiene sentido
             Bm                E  
Hay tantos recuerdos que le dan muy duro a mi corazón
00:00 / 00:00
Otros videos de esta canción
Repetir
Otros videos de esta canción
Composición de Omar Alfanno
10 vistas
    • ½ Tono
    • A
    • Bb
    • B
    • C
    • Db
    • D
    • Eb
    • E
    • F
    • F#
    • G
    • Ab
  • Agregar a la lista

    0 comentarios

    Ver todos los comentarios

    ¿Lograste tocar?

    0 Tocaron 0 Aún no

    ¡Graba un video tocando Sin tí y envíanoslo!

    00:00 / 00:00
    OK