Cifra Club

Surf's Up

Meat Loaf

Cifrado: Principal (guitarra y guitarra eléctrica)
tono: E
      E              C#m               A              B
E|-------------------------------|------------------------------|
B|--10--9----------10--9---------|--10--9----------10--9--------|
G|---9-----11--9----9----11-9~---|---9-----11--9----9----11-9~--|
D|---9--------------9------------|---9--------------9-----------|
A|-------------------------------|------------------------------|
E|-------------------------------|------------------------------|
       E           C#m               A            B              E
E|----------------------------|------------------------------|------|----|
B|--10--9--------10--9--------|--10--9--------10--9----------|------|----|
G|---9----11-9----9----11-9~--|---9----11-9----9----11-9-----|------|----|
D|---9------------9-----------|---9------------9----------9--|--9~--|----|
A|----------------------------|------------------------------|------|----|
E|----------------------------|------------------------------|------|----|


     E
The waves are poundin' on the sand tonight
      G#m
Wanna take your hand and make it feel so right
 C#m                       A                  B
I know I'm ready and I'll never be like this again
    E
And the sky is trembling and the moon is pale
 G#m
We're on the edge of forever and we're never gonna fail
 C#m                             A                        B
I know you're ready and we're running on the back of the wind

        E                      C#m
And my body is burning like a naked wire
          A                         B
I wanna turn on the juice, I wanna fall in the fire
            E                     C#m
I'm gonna drown in a ocean in a bottomless sea
           A                                   B
I'm gonna give you what I'm hoping you'll be giving to me
               E                        C#m
And when the waves are poundin' on the sand tonight
         A                          B
I wanna take your hand and make it good make it right
         E                        C#m
Now the sky is trembling and the moon is pale
              A                          B
We're on the edge of forever and we're never gonna fail, no

 A          E       A       B
How hard,       how hard
      A      G#m             B
how hard do I gotta try
E|----------------------------|
B|----------------------------|
G|---------8--9---8-----------|
D|--9--11------------11--9----|
A|----------------------------|
E|----------------------------|
(I want all of your love)


 A           E
Surf's up (I need it so bad),
 A           G#m
Surf's up (I need it so bad)
 A          B           C#m
Surf's up and so am I (I gotta give you some love)
 A           B
Surf's  up   and so am I
00:00 / 00:00
Otros videos de esta canción
Repetir
Otros videos de esta canción
Composición de Jim Steinman
Colaboración y revisión:
  • Danilo Lima
27 vistas
    • ½ Tono
    • A
    • Bb
    • B
    • C
    • Db
    • D
    • Eb
    • E
    • F
    • F#
    • G
    • Ab
  • Agregar a la lista

    0 comentarios

    Ver todos los comentarios

    ¿Lograste tocar?

    0 Tocaron 0 Aún no

    ¡Graba un video tocando Surf's Up y envíanoslo!

    00:00 / 00:00
    OK