Cifra Club

Aprenda

Sentía

Mecano

Tablatura: Principal (guitarra)
tono: G
INTRO:
E|--------------------------2---0-------------------------------|
B|-------5------------0--------------2---------3--1---------0---|
G|------4--------2---2--------------0---------0-----------2-----|
D|-----2----2--1----0--------------2---------2----------1-------|
A|--------------------------------4---------3---------2---------|
E|--------------------------------------------------------------|
Tara raa,  mmm mmm  Ta daa daa  tata ra  ta ra ra  ta ra ra   
.
E|--------0--2--3--7--5--3--2-----------------------------------|
B|--------------------------------------------------------------|
G|-----------------------2--------------------------------------|
D|----------------4--------------------------------------------|
A|--------------------------------------------------------------|
E|----0---------------------------------------------------------|

Em    B7            D              A7/C#            C     B7       Em       B7
Sentía  mucho por ti  y ahora, que siento igual de mucho, no lo sé dividir.
Em    B7            D          A7/C#           C      B7       Am/F         E  E/G#
Sentía  que no perdía nada buceando entre tus piernas sin medir    la brazada.
Am       Bbmaj7                 Am
Se siente,     ahora juego de suplente;
Bbmaj7                     Fm7
      que el que siente no presiente,
      G7  G7/B    Cm  Cm/G   C#7/G#          Cm   C#7/G#     
y de tanto que sentía, no sentí    que te perdía.
   Cm     C#7/G#      
Yo sentía       que 
Em    B7             D        A7/C#        C   B7       Em         B7
sentía  por tu carril Sentía la incauta miopía de no ver  tu perfil.
Em        B7               D          A7/C#         C     B7       Am/F
  Te dabas  para no dar la cara, que me ibas dando cuerda para que     
           E    E/G#  Am       Bbmaj7                 Am
yo me ahorcara        Se siente,     ahora juego de suplente;
Bbmaj7                     Fm7
      que el que siente no presiente,
      G7  G7/B    Cm  Cm/G   C#7/G#          Cm   C#7/G#     
y de tanto que sentía, no sentí    que te perdía.
   Cm     C#7/G#     Em
Yo sentía       que sentía.
Am       Bbmaj7             Am
Se siente  tu  sonrisa disidente, 
Bbmaj7                Fm7
     coqueteando con la mía, 
     G7  G7/B    Cm   Cm/G       C#7/G#  Cm       C#7/G#    
a mandíbula   batiente.    Soy un diente sin encía. 
      Cm   C#7/G#    Cm       C#7/G# 
No me pidas      que sonría. 
     Cm           F#m7  G7       Cm
Que estoy triste aaaah!    vida mía.
Composição de José María Cano / Nacho Maño
507 reproducciones
    • ½ Tono
    • A
    • Bb
    • B
    • C
    • Db
    • D
    • Eb
    • E
    • F
    • F#
    • G
    • Ab
  • Adicionar à lista

    0 comentarios

    Ver todos os comentários

    ¿Conseguiste tocar?

    0 Tocaram 0 Ainda não

    Grave um vídeo tocando Sentía e nos envie!

    00:00 / 00:00
    outros vídeos desta música
    repetir qualidade Automático
    Outros vídeos desta música
    00:00 / 00:00
    Automático
    OK