Cifra Club

How The Story Ends

Megadeth

Cifrado: Principal (guitarra y guitarra eléctrica)
Selo Cifra Club: esta cifra foi revisada para atender aos critérios oficiais da nossa Equipe de Qualidade.
tono: E
Riff 1:
E|---------------------------|
B|---------------------------|
G|---------------------------|
D|------4------------5-------|
A|-2----2-------2----3-------|
E|-0--0----0-00-0--0----0-00-|
      *    * **    *    * **
E|-------------------------------|
B|-------------------------------|
G|-------------------------------|
D|------4-------2----------------|
A|-2----2---2---0---5-4----------|
E|-0--0---0-0-0---0-3-2--2-2-2-2-|
      *   *   *   *      * * * *
E|----------------------------|
B|----------------------------|
G|----------------------------|
D|------4-------------5-------|
A|-2----2-------2-2-2-3-------|
E|-0--0----0-00-0-0-0----0-00-|
      *    * ** * * *    * **
1 Fim:
E|-------------------------------|
B|-------------------------------|
G|-------------------------------|
D|------4-------2----------------|
A|-2----2---2---0---5-4----------|
E|-0--0---0-0-0---0-3-2--2-2-2-2-|
      *   *   *   *      * * * *
2 Fim:
E|---------------------------|
B|---------------------------|
G|---------------------------|
D|------4-------2------------|
A|-2----2---2---0---5-4------|
E|-0--0---0-0-0---0-3-2--2-2-|
      *   *   *   *      * *

Riff 2:
E|---------------------------------------|
B|---------------------------------------|
G|---------------------------------------|
D|---------------------------------------|
A|-5h7--5h7------2----5h7--5h7------2----|
E|----------0000-0--0----------0000-0--0-|
            ****               ****
E|---------------------------------------|
B|---------------------------------------|
G|---------------------------------------|
D|---------------------------------------|
A|-5h7--5h7------2----5h7--5h7------2----|
E|----------0000-0--0----------0000-0--0-|
            ****               ****
E|---------------------------------------|
B|---------------------------------------|
G|---------------------------------------|
D|---------------------------------------|
A|-2h3--2h3------5--5-3h5--3h5------7--7-|
E|----------0000-3--3----------0000-5--5-|
            ****               ****
E|----------------------------------------|
B|----------------------------------------|
G|----------------------------------------|
D|----------------------------------------|
A|-5h7--5h7------2----5h7--5h7----9--8--7-|
E|----------0000-0--0----------00-7--6--5-|
            ****               **

Riff 3:
(guitarra 1)
E|--------------------------------|
B|--------------------------------|
G|--------------------------------|
D|--------------------------------|
A|-7------2----5h7--5h7------2----|
E|---0000-0--0----------0000-0--0-|
     ****               ****
E|---------------------------------------|
B|---------------------------------------|
G|---------------------------------------|
D|---------------------------------------|
A|-5h7--5h7------2----5h7--5h7------2----|
E|----------0000-0--0----------0000-0--0-|
            ****               ****
E|---------------------------------------|
B|---------------------------------------|
G|---------------------------------------|
D|---------------------------------------|
A|-2h3--2h3------5--5-3h5--3h5------7--7-|
E|----------0000-3--3----------0000-5--5-|
            ****               ****
E|----------------------------------------|
B|----------------------------------------|
G|----------------------------------------|
D|----------------------------------------|
A|-5h7--5h7------2----5h7--5h7----6--5--4-|
E|----------0000-0--0----------00-7--6--5-|
            ****               **

(guitarra 2)
E|-----------------------------------|
B|-----------------------------------|
G|-----------------------------------|
D|--------------------9--------------|
A|-10------2----9h10----10------2----|
E|----0000-0--0------------0000-0--0-|
      ****                 ****
E|-------------------------------------------|
B|-------------------------------------------|
G|-------------------------------------------|
D|-------9--------------------9--------------|
A|-9h10----10------2----9h10----10------2----|
E|------------0000-0--0------------0000-0--0-|
              ****                 ****
E|---------------------------------------|
B|---------------------------------------|
G|---------------------------------------|
D|---------------------------------------|
A|-5h7--5h7------5--5-7h9--7h9------7--7-|
E|----------0000-3--3----------0000-5--5-|
            ****               ****
E|--------------------------------------------|
B|--------------------------------------------|
G|--------------------------------------------|
D|-------9--------------------9---------------|
A|-9h10----10------2----9h10----10----6--5--4-|
E|------------0000-0--0------------00-7--6--5-|
              ****                 **

Riff 4:
(guitarra 1)
E|-----------------------------------------------------|
B|-----------------------------------------------------|
G|-----------------------------------------------------|
D|------------4-5--------------------------------------|
A|-2----------2-3--3-3-3-3-5-5----------5-3----------5-|
E|-0--0-0-0-0--------------3-2--2-2-2-2-2-1--1-1-1-1-3-|
      * * * *      * * * *      * * * *      * * * *
E|---------------------------------------------------|
B|---------------------------------------------------|
G|---------------------------------------------------|
D|------------4-5------------------------------------|
A|-2----------2-3--3-3-3-3-5-5----------5-3----------|
E|-0--0-0-0-0--------------3-2--2-2-2-2-2-1--1-1-1-1-|
      * * * *      * * * *      * * * *      * * * *

(guitarra 2)
E|----0---------0---------0---------0------|
B|-------0---------0---------0---------0---|
G|-----------------------------------------|
D|---------4-5-----------------------------|
A|-2-------2-3-------5-5-------5-3-------5-|
E|-0-----------------3-2-------2-1-------3-|

E|----0---------0---------0---------0----|
B|-------0---------0---------0---------0-|
G|---------------------------------------|
D|---------4-5---------------------------|
A|-2-------2-3-------5-5-------5-3-------|
E|-0-----------------3-2-------2-1-------|

Riff 5:
E|---------------------------------------|
B|---------------------------------------|
G|---------------------------------------|
D|---------------------------------------|
A|-5h7--5h7-----------5h7--5h7-----------|
E|----------0-0-0-0-0----------0-0-0-0-0-|
            * * * * *          * * * * *
E|---------------------------------------|
B|---------------------------------------|
G|---------------------------------------|
D|---------------------------------------|
A|-5h7--5h7-----------5h7--5h7---9--8--7-|
E|----------0-0-0-0-0----------0-7--6--5-|
            * * * * *          *
E|--------------------------------|
B|--------------------------------|
G|--------------------------------|
D|--------------------------------|
A|-7-----------5h7--5h7-----------|
E|---0-0-0-0-0----------0-0-0-0-0-|
     * * * * *          * * * * *
E|---------------------------------------|
B|---------------------------------------|
G|---------------------------------------|
D|---------------------------------------|
A|-5h7--5h7-----------5h7--5h7---4--5--6-|
E|----------0-0-0-0-0----------0-4--5--6-|
            * * * * *          *

(Riff 2)

(Riff 3)

Riff 4a:
(guitarra 1)
E|-----------------------------------------------------|
B|-----------------------------------------------------|
G|-----------------------------------------------------|
D|------------4-5--------------------------------------|
A|-2----------2-3--3-3-3-3-5-5----------5-3----------5-|
E|-0--0-0-0-0--------------3-2--2-2-2-2-2-1--1-1-1-1-3-|
      * * * *      * * * *      * * * *      * * * *
(guitarra 2)
E|----0---------0---------0---------0------|
B|-------0---------0---------0---------0---|
G|-----------------------------------------|
D|---------4-5-----------------------------|
A|-2-------2-3-------5-5-------5-3-------5-|
E|-0-----------------3-2-------2-1-------3-|

Riff 6:
(Solo Ritmico)
E|-----------------------------|
B|-----------0-----------------|
G|-----0-----------0-------0---|
D|---2-----4-----2-------1---1-|
A|---------------------2-------|
E|-0-----0-----0-----0---------|
   * *   * *   * *   * *
E|-----------------------------|
B|-----------0-----------------|
G|-----0-----------0-------0---|
D|---2-----4-----2-------2---2-|
A|---------------------3-------|
E|-0-----0-----0-----0---------|
   * *   * *   * *   * *
E|-----------------------------|
B|-----------0-----------------|
G|-----0-----------0-------0---|
D|---2-----4-----2-------1---1-|
A|---------------------2-------|
E|-0-----0-----0-----0---------|
   * *   * *   * *   * *

(guitarra 1)
E|---------------------------------|
B|---------------------------------|
G|-----0-----0-----0-----0-------0-|
D|---2-----4-----2-----0-----0-----|
A|-3-----5-----3-------------------|
E|-------------------3-----2---1---|
   * *   * *   * *   * *   *   *
(guitarra 2)
E|-------------------------|
B|-----0-----0---1-0-------|
G|---0-----2------------2--|
D|-2-----4-----2-----------|
A|-------------------------|
E|-------------------------|
   * *   * *   *

Solo:
(Acústico, Mustaine)
E|------------------------------------------|
B|-------12---------------------------------|
G|-12h14------------------------------------|
D|------------------------------------------|
A|-----------10-10p9-12p10----10p9-12p10----|
E|-------------------------11------------0--|

E|----------------------------|
B|-12h13p12--------------12\--|
G|-----------14--12--14-------|
D|----------------------------|
A|----------------------------|
E|----------------------------|

E|-----2----5--3--2--3--5-----------------------|
B|---1------------------------------------------|
G|-2--------------------------------11-------12-|
D|-------------------------------------13-10-h.-|
A|----------------------------------------------|
E|----------------------------------------------|

Riff 7:
E|-------------------------------|
B|-------------------------------|
G|-------------------------------|
D|-------------------------------|
A|-7-6-7-------------------------|
E|-------0-0-7-0-8~--7-8-0-0-3-0-|
         * *   *         * *   *
E|---------------------------------|
B|---------------------------------|
G|---------------------------------|
D|---------------------------------|
A|-------------------------6~------|
E|-2~--1-2-0-0-8-0-7~--6-7-----8-7-|
           * *   *
E|---------------------------------|
B|---------------------------------|
G|---------------------------------|
D|---------------------------------|
A|-7~--6-7-------------------------|
E|---------0-0-7-0-8~--7-8-0-0-3-0-|
           * *   *         * *   *
E|----------------------------------|
B|----------------------------------|
G|----------------------------------|
D|----------------------------------|
A|-----------------9----------------|
E|-2~--1-2-0-0-8-0-7--7-7-7-7-7-7-7-|
           * *   *    * * * * * * *
E|--------------------------------|
B|--------------------------------|
G|--------------------------------|
D|-9-8-9--------------------------|
A|-7-6-7-----9---10--9-10-----5---|
E|-------0-0-7-0--8--7--8-0-0-3-0-|
         * *   *          * *   *
E|--------------------------------|
B|--------------------------------|
G|--------------------------------|
D|------------------------8-------|
A|-4--3-4-----10---9--8-9-6--10-9-|
E|-2--1-2-0-0--8-0-7--6-7-----8-7-|
          * *    *
E|--------------------------------|
B|--------------------------------|
G|--------------------------------|
D|-9-8-9--------------------------|
A|-7-6-7-----9---10--9-10-----5---|
E|-------0-0-7-0--8--7--8-0-0-3-0-|
         * *   *          * *   *
E|--------------------------|
B|--------------------------|
G|--------------------------|
D|--------------------------|
A|-4--3-4-----10---9--(9)\--|
E|-2--1-2-0-0--8-0-7--(7)\--|
          * *    *

Solo:
(Broderick)
E|-----------------15-------------------------------|
B|-[16]17r16b17~------17-----[13]14r13~----------13-|
G|-----------------------15----------------12-15----|
D|--------------------------------------------------|
A|--------------------------------------------------|
E|--------------------------------------------------|

E|----------------------|
B|-13b14~---14----------|
G|-------------15-11----|
D|-------------------14-|
A|----------------------|
E|----------------------|

E|-14p11------------11h14t17p14/17p14------------14h17t20p17/-|
B|------12--------12-----------------16--------16-------------|
G|--------14-11h14---------------------17-14h17---------------|
D|------------------------------------------------------------|
A|------------------------------------------------------------|
E|------------------------------------------------------------|

E|-19~--15-19----19----19----------15-18----15-------|
B|------------17-------------------------17-------17-|
G|------------------16----15~----0-------------17----|
D|---------------------------------------------------|
A|---------------------------------------------------|
E|---------------------------------------------------|
                                 *
E|-------------------------|
B|-------------------------|
G|-15----------------------|
D|----16----------------16-|
A|-------16----------16----|
E|----------18-14-18-------|

E|----------------------------------------------14h17/-|
B|-------------------------------------------16--------|
G|-------------------------14h16p14----14h16-----------|
D|----------------------16----------16-----------------|
A|----14-18p14----14h18--------------------------------|
E|-17----------17--------------------------------------|

E|-19p15-------15----------------------------------|
B|-------17-------17-------17----------------------|
G|----------16-------16-------16-------16----------|
D|----------------------17-------17p14----17p14h16-|
A|-------------------------------------------------|
E|-------------------------------------------------|

E|-------------------------------------------------|
B|-------------------------------------------------|
G|-17p12-------12-------------------------------12-|
D|-------14-------14-------14----------------14----|
A|----------15-------15-------15----------15-------|
E|----------------------15-------15-12h15----------|

E|-------------------------------------12h14-12p9-|
B|----------------------------------14------------|
G|-15p11----------------------11h15---------------|
D|-------14p11----------11h14---------------------|
A|-------------13----13---------------------------|
E|----------------14------------------------------|

E|-14p11------11-14p11--11h14h17p14p11------11h14h17t20p17p14-|
B|------12--12--------12--------------13--13------------------|
G|--------14----------------------------14--------------------|
D|------------------------------------------------------------|
A|------------------------------------------------------------|
E|------------------------------------------------------------|

E|-19p15--------------------15h19t24p19p15-|
B|------17----------------17---------------|
G|--------16------------16-----------------|
D|----------17--------17-------------------|
A|------------19-14h19---------------------|
E|-----------------------------------------|

E|----15h19t24p19p15h19-t22p19p15h19-|
B|-17--------------------------------|
G|-----------------------------------|
D|-----------------------------------|
A|-----------------------------------|
E|-----------------------------------|

E|-20p15---------------------------------------|
B|------17----------------17----------------17-|
G|--------17------------17--17------------17---|
D|----------17--------17------17--------17-----|
A|------------19-15h19----------19-15h19-------|
E|---------------------------------------------|

E|-20p15----19p15----|
B|-------17-------17-|
G|-------------------|
D|-------------------|
A|-------------------|
E|-------------------|

E|-18p14--------------------14-18p14--14-----14p12-------|
B|------14----------------14--------14-----14-----14--14-|
G|--------15------------15---------------15---------15---|
D|----------16--------16---------------------------------|
A|------------16-13h16-----------------------------------|
E|-------------------------------------------------------|

E|-12-14-15-12/15-17p15-|
B|----------------------|
G|----------------------|
D|----------------------|
A|----------------------|
E|----------------------|

E|-19-17-15--------------------------------------------------|
B|----------19-17-15-----------------------------------------|
G|-------------------17-16-14--------------------------------|
D|----------------------------17-16-14-----------------------|
A|-------------------------------------17-15-14--------------|
E|----------------------------------------------17-15-14-12~-|

Riff 8:
E|---------------------------------|
B|---------------------------------|
G|---------------------------------|
D|---------------------------------|
A|--------2---------------3--------|
E|-200000----202320200000---202320-|
   ******    ************   ******
E|------------------------------|
B|------------------------------|
G|------------------------------|
D|------------------------------|
A|--------2-------------5--4--3-|
E|-200000----2023202000-3--2--1-|
   ******    **********

(Riff 4)

Riff 9:                    (3x)
E|-----------------------------|
B|-----------------------------|
G|------/5----4----------------|
D|-2----/5----4----5----4-5-7--|
A|-2---------------5----4-5-7--|
E|-----------------------------|
                        * *
E|-----------------------------|
B|-----------------------------|
G|------/5----4----------------|
D|-2----/5----4----5----4-5-3--|
A|-2---------------5----4-5-3--|
E|-----------------------------|
                        * *

(Riff 1)

Riff Final:
E|----------------------------------|
B|----------------------------------|
G|----------------------------------|
D|------4-------2-------------------|
A|-2----2---2---0---5-4--4-5---4-2--|
E|-0--0---0-0-0---0-3-2--2-3-0-2-0--|
      *   *   *   *          *
00:00 / 00:00
Otros videos de esta canción
Repetir
Otros videos de esta canción
1.384 exhibiciones
    • ½ Tono
    • A
    • Bb
    • B
    • C
    • Db
    • D
    • Eb
    • E
    • F
    • F#
    • G
    • Ab
  • Agregar a la lista

Afinación de cifrado

Afinador online

    00:00 / 00:00
    OK